» » »

Wings, Silly Love Songs Bass tabs (ver.1)

Artists:  A B C D E F G H I J K L M N O P Q R S T U V W X Y Z # 

Silly Love Songs Bass tabs (ver.1)

Wings Tabs
Rating:
4/5 (2 votes)
Hard to play? Try these video lessons and learn fast.
                -------------------------------------------------------------------------------
-------------------------------------------------------------------------------


Tuning:Standard

	Intro
G|--------------------------------------------------------------------------|
D|--------------------------------------------------------------------------|
A|-3-3-------------------------------10\------------------------------------|
E|----5-5-3-3-5-3-0-0-0-3-5-3-1--1-1----------------------------------------|

	Verses & Chorus
G|--------------------------------------------------------------------------|
D|--------------------------------------------------------------------------|
A|-3-3----------------------------------3--3-5-3----------------------------|
E|----5-5-3-3-5-3-0-0-0-3-3-5-3-1--1-3-5--5---------------------------------|

	Pre Chorus
G|-------/2-0---------------------------------------------------------------|
D|--------------------------------------------------------------------------|
A|-------------5-7-8-9-10---------------------------------------------------|
E|-0--1------------------3--------------------------------------------------|

	Part where Paul sings "Love Doesn't come in a minute"
G|--------------------------------------------------------------------------|
D|--------------------------------------------------------------------------|
A|-3-3----------------------------------3-3-3-3-----------------------------|
E|----5-5-3-3-5-3-0-0-0-3-3-5-3-1--1-3-5---5---3----------------------------|

	Continued ^
G|--------------------------------------------------------------------------|
D|-----------------------------------------------------------------------5--|
A|----3---------3-3--------------------3---5-5-5-3-5-5-5-3-5-5-5-3----------|
E|-3-5-5-3-1-------5-5-3-3-5-3-1----3-5-5-3-----------------------3-3-3-3-3-|

	Bridge
G|--------------------------------------------------------------------------|
D|---------------------------------5-5----9-9---10-10-----------------------|
A|-3-/7-------------3-/7-8--------3---3-/7---7-8-----8--8-10----------------|
E|--------13\--1---3-------1-1-3--------------------------------------------|
                  {^Play Twice ^}

	Ending
G|--------------------------------------------------------------------------|
D|--------------------------------------------------------------------------|
A|-3-3-------------------------------------3-5-3-----3-/7-8-----------------|
E|----5-5-3-3-5-3-0-0-0-3/5\3/5\3-1-1-3-5-5-----5-5-3-----------------------|

G|----------{-------------------------------}Repeat 2 times-----------------|
D|----------{-5-5----9-9---10-10---10-10----}-------------------------------|
A|-3-/7-8---{3---3-/7---7-8-----8-8-----10\3}-------------------------------|
E|-------1-3----------------------------------1-3----Play Chorus----0-0-----|


| /  slide up
| \  slide down
| h  hammer-on
| p  pull-off
| ~  vibrato
| +  harmonic
| x  Mute note
===============================================================================
            

comments powered by Disqus
↑ Back to top | Wings Bass for Silly Love Songs. Lyrics for acoustic guitar and electric guitar. Tablatures and chords are parodies/interpretations of the original songs. You may use it for private study, scholarship, research or language learning purposes only