>
 >
Band On The Run

Band On The Run Guitar Tabs

Wings - Band On The Run chords, tabs, tablatures, lyrics

Guitar lessons | Add/correct | Request | Top 50 tabs Artists:  A B C D E F G H I J K L M N O P Q R S T U V W X Y Z 0-9

Band On The Run Guitar Tabs – Wings

CD, Sheet music, Poster

Do you like Band On The Run? Share with your friends now
ChordsChords v2Chords v3TabsTabs v2Tabs v3Tabs v4

                                             Wings 
                                        Band On The Run (5:46)

E|--10h12-10-------------2---2-2-------------------------10h12-10------
B|------------10h12-10---2---2-2---10h12-10h12-10h12-10-----------12---
G|-----------------------2---2-2--------------------------------------
D|-----------------------0---0-0--------------------------------------
A|--------------------------------------------------------------------
E|--------------------------------------------------------------------

E|-------------------------10h12-10-----------2---2-2-----------------------
B|--10h12-10h12-10h12-10-----------10h12-10---2---2-2---1012-1012-1012-10---
G|--------------------------------------------2---2-2-----------------------
D|--------------------------------------------0---0-0-----------------------
A|--------------------------------------------------------------------------
E|--------------------------------------------------------------------------

E|--10h12-10---------------------------15-14-12-10--10-11--/15---
B|----------12--10h12-10h12-10h12-10---15-14-12-10--10-11--/15---
G|---------------------------------------------------------------
D|---------------------------------------------------------------
A|---------------------------------------------------------------
E|---------------------------------------------------------------

E|--15-14-12-10--10-11--/15--14h15-14---
B|--15-14-12-10--10-11--/15-------------
G|--------------------------------------
D|--------------------------------------
A|--------------------------------------
E|--------------------------------------

Dmaj7                         D*
Stuck inside these four walls,
G6                   G
Sent inside forever,
Dmaj7                D*
Never seeing no one
G6         G
Nice again    
     Dmaj7  Gmaj7  Dmaj7  Gmaj7  Dmaj7  Gmaj7
Like you    Mama   you    Mama   you. 

E|---------------------------------------------------------------------|
B|---------------------------------------------------------------------|
G|-----5-5-5--4-4--2-2~---7-7-7-7-7-7-4-4--4--5-5-5--4-4-4-2-2~--------|
D|----------------------0----------------------------------------------|
A|--0----------------------------------------------------------------0-|
E|---------------------------------------------------------------0-3---|

E|---------------------------------------------------------------------|
B|---------------------------------------------------------------------|
G|-----5-5-5--4-4--2-2~---7-7-7-7-7-7-4-4--4--5-5-5--4-4-4-2-2~--------|
D|----------------------0----------------------------------------------|
A|--0----------------------------------------------------------------0-|
E|---------------------------------------------------------------0-3---|

Am
If I ever get out of here,
D                        D6
Thought of giving it all  away
Am
To a registered charity.
D                    D6
All I need is a pint  a day
     Am
If I ever get out of here.
     Am
If I ever get out of here.

E|--------------------------------------------------------------|
B|--------------------------------------------------------------|
G|--------------------7--7-7--5~--------------------7--7-7--5~--|
D|-----------------5--7--7-7--5~-----------------5--7--7-7--5~--|
A|--------3--5--7-----5--5-5--3~--------3--5--7-----5--5-5--3~--|
E|---3--5--------------------------3--5-------------------------|

E|----------------0--0--0--0---1--1--1--1---0--0--0--0---1--1--1--1---|
B|----------------1--1--1--1---1--1--1--1---1--1--1--1---1--1--1--1---|
G|----------------0--0--0--0---0--0--0--0---0--0--0--0---0--0--0--0---|
D|----------------2--2--2--2---2--2--2--2---2--2--2--2---2--2--2--2---|
A|--------3-------3--3--3--3----------------3--3--3--3----------------|
E|---3--5----3--5-----------------------------------------------------|

          C                    Fmaj7
Well, the rain exploded with a mighty crash
                      C
As we fell into the sun,
        C                     Fmaj7
And the first one said to the second one there
                      Em
I hope you're having fun.
G           C    Em   C      Am
Band on the run, band on the run.
        Fmaj7          C
And the jailer man and sailor Sam
     Fmaj7     Fmaj7 Fmaj7  
Were searching every one
[N.C.]  C     Fmaj7     C  Fmaj7  C     Fmaj7     C  Fmaj7 
For the band on the run,          band on the run
C     Fmaj7     C  Fmaj7  C     Fmaj7     C  Fmaj7 
band on the run,          band on the run


          C                 Fmaj7
Well, the undertaker drew a heavy sigh
                            C
Seeing no one else had come,
      C                       Fmaj7
And a bell was ringing in the village square
                         Em
For the rabbits on the run.

G           C    Em   C      Am
Band on the run, band on the run.
        Fmaj7          C
And the jailer man and sailor Sam
     Fmaj7     Fmaj7 Fmaj7  
Were searching every one
[N.C.]  C     Fmaj7     C  Fmaj7  C     Fmaj7     C  Fmaj7 
For the band on the run,          band on the run

Em  G  C   C  Em  Am   G G G G   Fmaj7 Fmaj7 Fmaj7

[N.C.]  C     Fmaj7     C  Fmaj7  C     Fmaj7     C  Fmaj7 
For the band on the run,          band on the run

          C                        Fmaj7
Well, the night was falling as the desert world
                   C
Began to settle down.
       C                             Fmaj7
In the town they're searching for us every where
                       Em
But we never will be found.

G           C    Em   C      Am
Band on the run, band on the run.
        Fmaj7            C
And the county judge who held a grudge
     Fmaj7      Fmaj7  Fmaj7    
Will search for ever   more

[N.C.]  C     Fmaj7     C  Fmaj7  C     Fmaj7     C  Fmaj7 
For the band on the run,          band on the run
C     Fmaj7     C  Fmaj7  C     Fmaj7     C  Fmaj7 
band on the run,          band on the run

Em  G  C


CHORDS:
Am    x02210
C     x32010
D     xx0232
Dmaj7 xx0222
D*    xx0220 <-- Don't know the name for this chord
D6    xx0202
G     320003
G6    320000
Gmaj7 320002
Fmaj7 xx3210
Em    022000

  *      ____ ___  *    
    |   |    |   |
    |   |--  |---|
    |___|____|   |





Comments


Popular Wings tabs & chords
Goodnight Tonight Bass Tabs
Bluebird 2 Chords
Bujang Senang 1 Chords
Must Do Something About It 1 Chords
Richard Cory Chords
Leave Me Be Tabs
Biarkan Berlalu Ukulele
Hold Me Tight Ukulele
Misteri Mimpi Syakilla Ukulele
Richard Cory Ukulele


Song lyrics



↑ Back to top | Tablatures and chords are parodies/interpretations of the original songs. You may use it for private study, scholarship, research or language learning purposes only
© 2014 AZChords.com Contact us | Privacy policy | DMCA | Add/correct tabs | Request tabs | Top 50 tabs