» » »

Live It Up Tabs (ver.1)

Artists:  A B C D E F G H I J K L M N O P Q R S T U V W X Y Z # 

Live It Up Tabs (ver.1)

Willy Mason
Rating:
0/5 (0 votes)

Hard to play? Try these video lessons and learn fast.
                Ok so I don't think this is super exact but this is how I play it and it sounds pretty close..
and it's basically just an alternation between bass and treble, the same thing for each chord
everytime, just maybe not necessarily in the same order I have presented here.

Intro
e]-----------00-----------00-------------00---------|
B]-----------00-----------00-------------00---------|
G]-----------00-----------00-------------00---------|
D]-----------22-2---------22-------------22---------|
A]-------0h2-----------0h2---2-------0h2------------|
E]-3-2-0----------3-2-0--------3-2-0--------3~--2-0-|

Verse    Em              C            Am
e]----00---00---||----00-----00--||----00-----00--[
B]o---00---00--o||o---11-----11-o||o---11-----11-o[
G]----00---00---||----00-----00--||----22-----22--[
D]----22---22---||-------0h2-----||-------0h2-----[
A]o-----0h2----o||o-3-----------o||o-0-----------o[
E]--0-----------||---------------||---------------[

        B7
e]------2~----|
B]-----0------|
G]----2-------|
D]---1--------|
A]--2---------|
E]------------|

Chorus
e]|-------00-----00--|------00-----00---|
B]|o------11-----11-o|o-----00-----00--o|
G]|-------00-----00--|------00-----00---|
D]|----------0h2-----|------22-----22---|
A]|o-0-2-3----------o|o--------0h2-----o|
E]|------------------|-3-2-0------------|

Verse
Em
The sun don't set in Gettysville
   C
The place that I call home,
 Em
A thousand people walk these streets
   C
But we're still all alone,
    Am
This city's isolation
        C                    B7
Like the drug that paves the roads.
Em
Take the subway uptown
C
To my mother's place.
     Em
She's got a thousand friends
            C
But all they know of her's, her face,
Am
All alone inside her head
   C                  B7
Her thoughts begin to race.

Chorus
C
Live it up,
                  Em
Live it up they sa-ay
C
Live it up,
                            Em
No time to waste your life away.
            
Hard to play? Try these video lessons and learn fast. | Correct




comments powered by Disqus
↑ Back to top | Tablatures and chords are parodies/interpretations of the original songs. You may use it for private study, scholarship, research or language learning purposes only