>
 >
Crazy

Crazy Guitar Tabs

Willie Nelson - Crazy chords, tabs, tablatures, lyrics

Guitar lessons | Add/correct | Request | Top 50 tabs Artists:  A B C D E F G H I J K L M N O P Q R S T U V W X Y Z 0-9

Crazy Guitar Tabs – Willie Nelson

CD, Sheet music, Poster

Do you like Crazy? Share with your friends now
ChordsTabsUkulele
                                    Crazy                                       


                                                                   Willie Nelson



     Cra - zy,___________                   
                                 v    ^     
     E                    Q.     Q    Q     
E||------------------------------3----3----|
B||--0---------------------------0----0----|
G||------------------------------0----0----|
D||-----------------------0----------------|
A||----------------------------------------|
E||----------------------------------------|


  cra - zy      for  feel - in'      so    
  |------3------|    |-------3-------|     
  Q        Q    Q    Q          Q    Q     
---------------------0--------------------|
----------------0---------------3----0----|
-----------1------------------------------|
--2---------------------------------------|
------------------------------------------|
------------------------------------------|


  lone - ly,__________________________                                    I'm   
                                              ^            ^         ^          
  E                                    Q.     Q    Q       Q    Q    Q    Q     
---------------------------------------0------0----0----|--0----0----0---------|
--1-------------------------------------------1----1----|--1----1----1----4----|
----------------------------------------------2----2----|--2----2----2---------|
--------------------------------------------------------|----------------------|
--------------------------------------------------------|----------------------|
--------------------------------------------------------|----------------------|


  cra - zy,_________                   
                            ^          
  E                  Q.     Q    Q     
--0-------------------------2----2----|
----------------------------1----1----|
----------------------------2----2----|
---------------------4----------------|
--------------------------------------|
--------------------------------------|


  cra - zy      for  feel - in'      so    
  |------3------|    |-------3-------|     
  Q        Q    Q    Q          Q    Q     
---------------------3----------0----2----|
------------------------------------------|
----------------2-------------------------|
--0--------4------------------------------|
------------------------------------------|
------------------------------------------|


  blue.________________________________                   
                                               ^          
  E                                     Q.     Q    Q     
--0--------------------------------------------1----1----|
----------------------------------------3------0----0----|
-----------------------------------------------1----1----|
---------------------------------------------------------|
---------------------------------------------------------|
---------------------------------------------------------|


                         I  knew ______         you'd  
  ^         ^                           ^              
  Q    Q    Q    Q       E  Q.          Q    E  E      
--0----0----2----2----|-----------------3----3--------|
--1----1----1----1----|--0--------------0----0--------|
--2----2----2----2----|-----------------0----0--------|
----------------------|-----0-------------------0-----|
----------------------|-------------------------------|
----------------------|-------------------------------|


  love me   as   long as   you   
  |----3----|    |----3----|     
  Q    Q    Q    Q    Q    Q     
-----------------0--------------|
------------0---------3----0----|
-------1------------------------|
--2-----------------------------|
--------------------------------|
--------------------------------|


  want - ed,___________________                               and  then  
                                       ^            ^                    
  E                             Q.     Q    Q       Q    Q    Q    Q     
--------------------------------0------0----0----|--0----0----0---------|
--1------------------------------------1----1----|--1----1---------4----|
---------------------------------------2----2----|--2----2--------------|
-------------------------------------------------|----------------------|
-------------------------------------------------|----------------------|
-------------------------------------------------|----------------------|


  some - day _____                you'd  
                          ^              
  E                Q.     Q    E  E      
--0-----------------------2----2--------|
--------------------------1----1--------|
--------------------------2----2--------|
-------------------4--------------2-----|
----------------------------------------|
----------------------------------------|


  leave me for           some-bod-y            
  |--------3--------|    |-------3-------|     
  Q            Q    Q    Q          Q    Q     
----------------------------------------------|
-------------------------1----------0---------|
--------------------2--------------------2----|
--0------------4------------------------------|
----------------------------------------------|
----------------------------------------------|


  new . ___________________                   _____________                 
                            ^         ^                     ^         ^     
  Q                         Q    Q    Q       Q             Q    Q    Q     
----------------------------3----0----0----|--3-------------3----1----1----|
----------------------------0----1----1----|--0-------------0----0----0----|
--0-------------------------0----0----0----|--0-------------0----0----0----|
-------------------------------------------|-------------------------------|
-------------------------------------------|-------------------------------|
-------------------------------------------|-------------------------------|


  Wor - ry, ________                     why  do   I    let  my - self  
                            ^                                           
                                         |----3----|    |----3----|     
  E                  Q.     Q    Q       Q    Q    Q    Q    Q    Q     
--3------------------0------0----0----|------------0----3----2----0----|
----------------------------1----1----|-------1------------------------|
----------------------------0----0----|--0-----------------------------|
--------------------------------------|--------------------------------|
--------------------------------------|--------------------------------|
--------------------------------------|--------------------------------|


  wor ry,    ______________________________                              
             ^                                      ^         ^          
  E   Q.     Q                              Q       Q    Q    Q    Q     
--3----------3------------------------------3----|--3----3----3----3----|
------3------0------------------------------0----|--0----0----0----0----|
-------------0------------------------------0----|--0----0----0----0----|
-------------------------------------------------|----------------------|
-------------------------------------------------|----------------------|
-------------------------------------------------|----------------------|


  won-d'rin'________                     what in   the world      did  I     
                            ^                                                
                                         |----3----|         |----3----|     
  E                  Q.     Q    Q       Q    Q    Q         Q    Q    Q     
--3------------------0------0----0----|------------0---------3----2----0----|
----------------------------2----2----|-------2-----------------------------|
----------------------------0----0----|--2----------------------------------|
--------------------------------------|-------------------------------------|
--------------------------------------|-------------------------------------|
--------------------------------------|-------------------------------------|


  do? ________________________________                                        
                                       ^         ^            ^         ^     
  Q                                    Q    Q    Q       Q    Q    Q    Q     
---------------------------------------2----2----2----|--2----2----2----2----|
--3------------------------------------3----3----3----|--1----1----1----1----|
---------------------------------------2----2----2----|--2----2----2----2----|
------------------------------------------------------|----------------------|
------------------------------------------------------|----------------------|
------------------------------------------------------|----------------------|


  Cra-zy,________                for    thinking      that my   love could  
                         ^                                                  
                                        |------3------|    |----3----|      
  E               Q.     Q    E  E      Q        Q    Q    Q    Q    Q      
-------------------------3----3------|---------------------0---------------|
--0----------------------0----0------|----------------0---------3----0-----|
-------------------------0----0------|-----------1-------------------------|
------------------0--------------0---|--2----------------------------------|
-------------------------------------|-------------------------------------|
-------------------------------------|-------------------------------------|


  hold you. ___________________________                             I'm   
                                        ^            ^         ^          
  E    Q.                               Q    Q       Q    Q    Q    Q     
-------0--------------------------------0----0----|--0----0----0----0----|
--1-------------------------------------1----1----|--1----1----1---------|
----------------------------------------2----2----|--2----2----2---------|
--------------------------------------------------|----------------------|
--------------------------------------------------|----------------------|
--------------------------------------------------|----------------------|


  cra-zy      for  try- in,       cra-zy      for  cry-in',       and I'm  
  |-----3-----|                   |-----3-----|                            
  Q      Q    Q    E    Q.        Q      Q    Q    E        E  E  S   S    
--3------0---------2-----------|--0---------------------------------------|
--------------1---------3------|---------1---------3--------0--L------0---|
-------------------------------|--------------2-------------------2-------|
-------------------------------|------------------------------------------|
-------------------------------|------------------------------------------|
-------------------------------|------------------------------------------|


  cra-zy      for  lov -  in'     you.______            
                                             ^          
  |-----3-----|                                         
  Q      Q    Q    E   E  Q       H          H          
-------------------------------|-------------3--------||
--1----------------0------0----|-------------0--------||
-------------------------------|--0----------0--------||
---------1----2--------4-------|----------------------||
-------------------------------|----------------------||
-------------------------------|----------------------||




Duration Legend
---------------
W - whole
H - half
Q - quarter
E - 8th
S - 16th
T - 32nd
X - 64th
. - note dotted
|-n-|  - n-tuplets


Tablature Legend
----------------
L - tied note
x - dead note
g - grace note
(n) - ghost note
> - accentuded note
NH - natural harmonic
AH - artificial harmonic
TH - tapped harmonic
SH - semi harmonic
PH - pitch harmonic
h - hammer on
p - pull off
b - bend
br - bendRelease
pb - preBend
pbr - preBendRelease
brb - bendReleaseBend
\n/ - tremolo bar dip
\n - tremolo bar dive
-/n - tremolo bar Release up
/n\ - tremolo bar inverted dip
/n - tremolo bar return
-\n - tremolo bar Release down
S - shift slide
s - legato slide
/ -  slide into from below or out of upwards
\ -  slide into from above or out of downwards
~ - vibrato
W - wide vibrato
tr - trill
TP - tremolo picking
T - tapping
S - slap
P - pop
< - fade in
^ - brush up
v - brush down





Comments


Popular Willie Nelson tabs & chords
On The Road Again Bass Tabs
Both Ends Of The Candle Chords
I Still Can't Believe You're Gone Chords
My Broken Heart Belongs To You Chords
She Is Gone Chords
Sioux City Sue Chords
Yesterdays Wine Chords
Crazy Ukulele
I Gotta Get Drunk Ukulele
My Heros Have Always Been Cowboys Ukulele


Song lyrics



↑ Back to top | Tablatures and chords are parodies/interpretations of the original songs. You may use it for private study, scholarship, research or language learning purposes only
© 2014 AZChords.com Contact us | Privacy policy | DMCA | Add/correct tabs | Request tabs | Top 50 tabs