>
 >
Something Stupid

Something Stupid Guitar Tabs

Williams Robbie - Something Stupid chords, tabs, tablatures, lyrics

Guitar lessons | Add/correct | Request | Top 50 tabs Artists:  A B C D E F G H I J K L M N O P Q R S T U V W X Y Z 0-9

Something Stupid Guitar Tabs – Williams Robbie

CD, Sheet music, Poster

Do you like Something Stupid? Share with your friends now
ChordsTabs
Robbie Williams and Nicole Kidman
		Something Stupid
			Dedicated to Nancy & Frank Sinatra


	|-------------------|
	|   h = hammer on   |
	|   p = pull off    |
	|   s = slide       |
	|-------------------| 

This amazing love song took me about an hour or so to tab, hope you guys 
enjoy! Send comments, suggestions, compliments and corrections to

This is my first tab, hope I did it right :)

Enjoy!

Note: Please don't copy this tab or redistribute it without my permission!

Intro...
E|--------------------------------|------------------------------------|
A|--------------------------------|------------------------------------|
D|--------------------------------|------------------------------------|
G|--------------------------------|------------------------------------|
B|--8-8-----------------------10--|-----------10--8--7h8p7--------7-8--|
E|-------7--8--10--10-8-7h8p7-----|--10-8-7-8--------------7--7-9------|

E|------------------------------|----------------|
A|------------------------------|------------10--|
D|------------------------------|----10-9--7-----|
G|------------------------------|--7-------------|
B|------8-10-----------------8--|----------------|
E|--7-9------7-10---8--7h8p7----|----------------|

..time to spend an evening with me..
E|--------------------------|
A|--------------------------|
D|--7-9-10------------------|
G|---------7-9--------9-----|
B|-------------7-8--7----7--|
E|--------------------------|

..there's a chance you wont be leaving with me..
E|------------------------------------------|
A|------------------------------------------|
D|------------------------------------10-9--|
G|--------------------------9--7-h9p7-------|
B|---------------10-7--8-7------------------|
E|--10---8-7-8-7----------------------------|

..and have a drink or two..
E|------------------------------|
A|------------------------------|
D|------------------------------|
G|-----------------10--8--7--8--|
B|--------------8---------------|
E|------------------------------|

..i can see it in your eyes.. (?)
E|---------------|
A|---------------|
D|---------------|
G|---------------|
B|--8-10-----10--|
E|--------7------|

..same old lies you heard the night before..
E|-----------------|
A|-----------------|
D|-----------------|
G|--9-----------9--|
B|----8------------|
E|------7--8-7-----|

..it never seemed so right before..
E|------------------------------|
A|------------------------------|
D|--7-5-7-------7---------7--5--|
G|--------4-5-4---4-5--4--------|
B|------------------------------|
E|------------------------------|

..the meaning come thru..
E|------------------------------------|
A|------------------------------------|
D|------------------------------------|
G|------------------------------------|
B|--10--------------------------10-8--|
E|-----7-8-7-8-8-10p8p7-8-7-8-7-------|

..and im alone with you..
E|--------------------------------------------|
A|-------------------------------------10-----|
D|-------------------------9-----7--9------7--|
G|--7-9-------9----9--7--9-----7--------------|
B|------7-8-7---8-----------------------------|
E|--------------------------------------------|

..the nights so blue..
E|------------------------------|
A|------------------------------|
D|------------------------------|
G|------------------------------|
B|-----------------8--7-5h7p5s3-|
E|------------------------------|

..i love you..
E|---------------------------|
A|---------------------------|
D|-----8------------8--------|
G|--77----7--9---------7--9--|
B|---------------------------|
E|---------------------------|

..solo..
E|-----------------------------------------------------------|
A|-----------------------------------------------------------|
D|--7-9-10-----------------------------------------------10--|
G|---------7-9----------------------9------7---9--7-9-7------|
B|-------------7----8---10--7-10-8----8-7----7---------------|
E|---------------7----7--------------------------------------|

E|-------------------------------------------|
A|-------------------------------------------|
D|--9----------------------------------------|
G|----7------------------------------7----7--|
B|------8--------------------------8----9----|
E|--------10--8-7-8--7-8--8h10p8p7-----------|

..end..





Comments


Popular Williams Robbie tabs & chords
Better Man Bass Tabs
Eternity Chords
Feel Chords
Hot Fudge Chords
No Regrets Chords
Road To Mandalay Chords
Rock Dj Chords
Something Beautiful Chords
Feel 1 Tabs
Misunderstood Tabs


Song lyrics



↑ Back to top | Tablatures and chords are parodies/interpretations of the original songs. You may use it for private study, scholarship, research or language learning purposes only
© 2014 AZChords.com Contact us | Privacy policy | DMCA | Add/correct tabs | Request tabs | Top 50 tabs