» » »

Will Haven, Stick Up Kid Tabs (ver.1)

Artists:  A B C D E F G H I J K L M N O P Q R S T U V W X Y Z # 

Stick Up Kid Tabs (ver.1)

Will Haven Tabs
Rating:
0/5 (0 votes)
Stick Up Kid lessons Tabs too difficult? Try these video lessons and learn fast
                STICK UP KID
drop-d tuning, loads of effects, listen to the song to see what u need and check what u have got

intro

   G||--5-5------7-7------|| the last time ||--5-5----|
   D||--------------------||               ||---------|
   A||--3-3------5-5------||                ||--3-3----|
   D||--------------------||                ||---------|

Riff 1:

|-----13-13-13-|-----13-13-13-|-----13-13-13-|----13-13-13-|--8-8-8-8-8-8-8-8-8-8-8-8--|
  
|--0-----------|--0-----------|--0-----------|-0-----------|--7-7-7-7-7-7-7-7-7-7-7-7--|
  
|--0--11-11-11-|--0--11-11-11-|--0--11-11-11-|-0--11-11-11-|--6-6-6-6-6-6-6-6-6-6-6-6--|
  
|--0-----------|--0-----------|--0-----------|-0-----------|---------------------------||
                                                              
Riff A2:
 v - volume swell

  |--------|--------||
  |--------|--------||
  |--7-----|--5-----||
  |--6-----|--4-----||
  |--5-----|--3-----||
  |--------|--------||
     v        v



Riff 2:

|----------|----------|----------|----------|-4--4-4-4--4-4-4--4-4-5-5-5-||.
|-0--1-0-0-|-0--1-0-0-|-0--1-0-0-|-0--1-0-0-|----------------------------||.
|-0--1-0-0-|-0--1-0-0-|-0--1-0-0-|-0--1-0-0-|-2--2-2-2--2-2-2--2-2-3-3-3-||
|-0--1-0-0-|-0--1-0-0-|-0--1-0-0-|-0--1-0-0-|-2--2-2-2--2-2-2--2-2-3-3-3-||

Riff 3:
 h - harmonics

  |----------||                         
  |----------||x3  then.......
  |----------||                        |-----------5-5-5--|  
  |-0--------||                        |-0-----------5-5--|
  |-0--------||                        |-0-------------5--|
  |-0--3-3-3-||                        |-0--3-3-3---------|
       H H H                                H H H  H H H 
  
Riff 4:
 

  |-----------------------|                	     
  |-----------------------|
  |----------3-3------3-3-|
  |-----------------------|		     |----------2-2------2-2-|
  |-1-1-1-1--1-1--1-1-0-0-|		     |-1-1-1-1--1-1--1-1-0-0-|   
  |-1-1-1-1--1-1--1-1-0-0-|	             |-1-1-1-1--1-1--1-1-0-0-|
  |-1-1-1-1--1-1--1-1-0-0-|		     |-1-1-1-1--1-1--1-1-0-0-|
  
Riff 5:
 

  |--------|----------||
  |--------|----------||
  |-8------|-10-8--7--||
  |--------|----------||
  |-6------|-8--6--5--||
  |--------|----------||
    v        v  v  v

Riff 6:

  |----------------|------------||
  |----------------|------------||
  |-7-------8------|------------||
  |-6-------7------|------------||
  |-5-------6------|------------||
  |----------------|-0---3------||
            

comments powered by Disqus
↑ Back to top | Will Haven Tabs for Stick Up Kid. Lyrics for acoustic guitar and electric guitar. Tablatures and chords are parodies/interpretations of the original songs. You may use it for private study, scholarship, research or language learning purposes only