» » »

Slopez Tabs (ver.1)

Artists:  A B C D E F G H I J K L M N O P Q R S T U V W X Y Z # 

Slopez Tabs (ver.1)

Will Haven
Rating:
5/5 (1 vote)

Hard to play? Try these video lessons and learn fast.
                Will Haven
WHVN



Tuning: B,F#,B,E,G#,C#

Main riff:
|-------------------|
|-------------------|
|-------------------|
|-------------------|
|---/9-----4-5--1---|
|---/9-----4-5--1---|

Riff 2:
|-------------------------------------------|
|---3-----33--3---3-------------------------|
|---2-----22--2---2-------------------------|
|---0-----00--0---0---0---------------------|
|---0-----00--0---0---0---------------------|
|---0-----00--0---0---0---4-4-4-41--1-1-1---|

|-------------------------------------------|
|---333333333333333333----------------------|
|---222222222222222222----------------------|
|---0000000000000000000---------------------|
|---0000000000000000000---------------------|
|---0-----------------0---4-4-4-41--1-1-1---|

 (w/ flanger)
|---5555555555555555555555555555555---------|
|---3333333333333333333333333333333---------|
|---2222222222222222222222222222222---------|
|---0000000000000000000000000000000---------|
|-------------------------------------------|
|-------------------------------------------|

|---------------------------------|
|---3-----------------------------|
|---2----then back to main riff---|
|---0-----------------------------|
|---0-----------------------------|
|---0-----------------------------|

------------------------
------------------------

PART 2
 "intro"
|-------------------------|
|-------------------------|
|---7-7777-7777-7777-77---|
|-------------------------|
|---5-5555-5555-5555-55---|
|-------------------------|

 Main riff
|---------------------------------------|
|---------------------------------------|
|-----------333333333333-777777777777---|
|---------------------------------------|
|---1---0---111111111111-555555555555---|
|---1---0-------------------------------|

end riff (w/ flanger)
|-------------------------------|
|-------------------------------|
|---3333333333/555-2222222222---|
|------------------0000000000---|
|---1111111111/333-0000000000---|
|-------------------------------|
            
Hard to play? Try these video lessons and learn fast. | Correct




comments powered by Disqus
↑ Back to top | Tablatures and chords are parodies/interpretations of the original songs. You may use it for private study, scholarship, research or language learning purposes only