» » »

Will Haven, Saga Tabs (ver.1)

Artists:  A B C D E F G H I J K L M N O P Q R S T U V W X Y Z # 

Saga Tabs (ver.1)

Will Haven Tabs
Rating:
4/5 (1 vote)
Saga lessons Tabs too difficult? Try these video lessons and learn fast
                Will Haven
Carpe Diem

Tuning: B,F#,B,E,G#,C#

for information, 
I tabbed the album version 
and what I called "one guitar version" for some riffs
but when Jeff is the only guitar player live, he plays gtr1 I guess


Riff 1:
 gtr1
|-----------------------------------------------------|
|-----------------------------------------------------|
|---77-77-77-77-77-77-77-77-66-66-66-66-66-66-66-66---|
|-----------------------------------------------------|
|---55-55-55-55-55-55-55-55-44-44-44-44-44-44-44-44---|
|-----------------------------------------------------|
 gtr2
|-----------------------------------------------------|
|-----------------------------------------------------|
|-----------------------------------------------------|
|-----------------------------------------------------|
|-----------------------------------------------------|
|---00-66-00-66-00-66-00-66-00-55-00-55-00-55-00-55---|

 1 gtr version
|-----------------------------------------------------|
|-----------------------------------------------------|
|---77-77-77-77-77-77-77-77-66-66-66-66-66-66-66-66---|
|-----------------------------------------------------|
|---55-55-55-55-55-55-55-55-44-44-44-44-44-44-44-44---|
|---00-66-00-66-00-66-00-66-00-55-00-55-00-55-00-55---|


Riff 2:
 gtr1
|------------------------------------------------------|
|------------------------------------------------------|
|------------------------------------------------------|
|------------------------------------------------------|
|------------------------------------------------------|
|---00-88b00-88b00-88b00-88b00-44b00-44b00-44b00-44b---|
 gtr2
|---------------------------------------------|
|---------------------------------------------|
|---1515-1515-1515-1515-1515-1515-1515-1515---|
|---------------------------------------------|
|---1313-1313-1313-1313-1313-1313-1313-1313---|
|---------------------------------------------|

|---------------------------------------------|
|---------------------------------------------|
|---1111-1111-1111-1111-1111-1111-1111-1111---|
|---------------------------------------------|
|---9-9--9-9--9-9--9-9--9-9--9-9--9-9--9-9----|
|---------------------------------------------|


 1 gtr version
|------------------------------------------------------|
|--111111111111111111111111111177-77-77-77-77-77-77----|
|------------------------------------------------------|
|---88-88-88-88-88-88-88-88-88-44-44-44-44-44-44-44----|
|---00----00----00----00----00----00----00----00-------|
|---00-88b00-88b00-88b00-88b00-44b00-44b00-44b00-44b---|

end on: 
 (00:44) 
|---------------|-----------------------------|
|---------------|-----------------------------|
|---(flanger)---|---77-77-77-77-77-77-77-77---|
|---------------|-----------------------------|
|---1------/4---|---55-55-55-55-55-55-55-55---|
|---1------/4---|---00-66-00-66-00-66-00-66---|


Riff 3:
|--------------------------------------|
|--------------------------------------|
|--------------------------------------|
|---33333333333333333333333333---------|
|---33333333333333333333333333---------|
|---33333333333333333333333333-66660---|

|--------------------------------------|
|--------------------------------------|
|-----------555555555444444444---------|
|---33333333333333333333333333---------|
|---33333333333333333333333333---------|
|---33333333333333333333333333-66660---|
 end on:
|--------|
|--------|
|---7----|
|---0----|
|---0----|
|---0----|


Riff 4: 
|----------------------------------------|
|----------------------------------------|
|----------------------------------------|
|----------------------------------------|
|----------------------------------------|
|---11-11--111111111--11-11--111111111---| (1 not 11)

|----------------------------------------|
|----------------------------------------|
|----------------------------------------|
|----------------------------------------|
|----------------------------------------|
|---00-00--000000000--00-00--000000000---|


Riff 5: 
|-----------------------------------|
|-----------------------------------|
|---------101010101010--------------|
|-----------------------------------|
|---0-0--0-8-8-8-8-8-8--11-11--11---|
|---0-0--0--------------11-11--11---|  (11 not 1)

|---------------------------------|
|---------------------------------|
|---101010101010101010-10-10-10---|
|---------------------------------|
|---8-8-8-8-8-8-8-8-8--11-11-11---|
|----------------------11-11-11---|
 end on:
|---------------------------------|
|---------------------------------|
|----(flanger)--------------------|
|---------------------------------|
|-------------/12-----------------|
|-------------/12-----------------|
            

comments powered by Disqus
↑ Back to top | Will Haven Tabs for Saga. Lyrics for acoustic guitar and electric guitar. Tablatures and chords are parodies/interpretations of the original songs. You may use it for private study, scholarship, research or language learning purposes only