>
 >
Rut

Rut Guitar Tabs

Will Haven - Rut chords, tabs, tablatures, lyrics

Guitar lessons | Add/correct | Request | Top 50 tabs Artists:  A B C D E F G H I J K L M N O P Q R S T U V W X Y Z 0-9

Rut Guitar Tabs – Will Haven

CD, Sheet music, Poster

Do you like Rut? Share with your friends now
Tabs
RUT

Drop D Tuning



Riff 1  M - PALM MUTE
E||-------------------------------|
B||-------------------------------|
G||----------------------6-6-6-6--|
D||-0-0-0-0-0--0-0--0-0--4-4-4-4--|
A||-0-0-0-0-0--0-0--0-0--4-4-4-4--|
D||-0-0-0-0-0--0-0--0-0--4-4-4-4--|
    M M M M    M    M  

Riff 2
|----|	   |----|     |----|
|----|	   |----|     |----|
|-7--|x16  |-5--|x8   |-3--|x8
|----|	   |----|     |----|
|-5--|	   |-3--|     |-1--|
|----|	   |----|     |----|
	
Riff 3
|-----------------------------------------------|
|-----------------------------------------------|
|-----------------------------------------------|
|-0---------------------0---------0-0-----------| LISTEN FOR TIMING
|-0---------------------------0-0-0-0-----------|
|-0-0-0-0-0-0-0-0-0-0-0---0-0-0-0-0-0-----------|
  M M M M M M M M M M M   M M M M 

Riff 4
|------------------------------|
|------------------------------|
|------------------------------|
|-0-0-0-0-0--0-0-0-0-0--0-0-0--|	
|-0-0-0-0-0--0-0-0-0-0--0-0-0--|	
|-0-0-0-0-0--0-0-0-0-0--0-0-0--|	
  M M M M    M M M M    M M

Riff 5
|-----------------------------|        |---|
|-----------------------------|        |---|
|-----------------------------| then   |-7-| for A WHILE, LISTEN FOR TIMING
|-0-0-0-0-0--0-0-0-0-0-0-0-0--|        |---|	
|-0-0-0-0-0--0-0-0-0-0-0-0-0--|        |-5-|	
|-0-0-0-0-0--0-0-0-0-0-0-0-0--|        |---|	
  M M M M    M M M M    

Riff 6
|------------------------------------|
|------------------------------------|
|-7/8-8-8-8-8--7/8--11-11--11-11-11--|
|-7/8-8-8-8-8--7/8--11-11--11-11-11--|
|-5/6-6-6-6-6--5/6-- 9--9---9--9--9--|
|------------------------------------|

Riff 7 = Play over Riff 6
|------------------------------------|
|------------------------------------|
|-7/8-8-8-8-8--7/8--11-11--11-11-11--|
|------------------------------------|
|-5/6-6-6-6-6--5/6-- 9--9---9--9--9--|
|------------------------------------|

Riff 8
|----------|
|----------|
|----------|
|-0-0-0-0--|
|-0-0-0-0--|
|-0-0-0-0--|
  M M M M





Comments


Popular Will Haven tabs & chords
Alpha Male Tabs
Bats Tabs
Carpe Diem 2 Tabs
Dolph Lundgren 1 Tabs
Extinguish Tabs
Finest Hour Tabs
Finest Our Tabs
Helena Tabs
Jaworski Tabs
Miguel.. Tabs


Song lyrics



↑ Back to top | Tablatures and chords are parodies/interpretations of the original songs. You may use it for private study, scholarship, research or language learning purposes only
© 2014 AZChords.com Contact us | Privacy policy | DMCA | Add/correct tabs | Request tabs | Top 50 tabs