» » »

Will Haven, Miguel.. Tabs (ver.1)

Artists:  A B C D E F G H I J K L M N O P Q R S T U V W X Y Z # 

Miguel.. Tabs (ver.1)

Will Haven Tabs
 Rating:
4/5 (4 votes)
Miguel.. lessons Tabs too difficult? Try these video lessons and learn fast
1
                			

Drop B tuning  (B,F#,B,E,G#,C#)


*This is my favourite Song on Carpe Diem... sooo Heavy... absolutely love it.


||---------------------------------||
||---------------------------------||
||---------------------------------||
||---------------------------------||
||---------------------------------||
||--111-111-1110-111-111-111-1110--||


||---------x4-------------------x4--||
||----------------------------------||
||----------------------------------||
||----------------------------------|| Play while slowly pulling on the note.
||----^----^-------^----------^-----||
||--6660-6660--101010-0--101010-0---||


||--------||
||--------|| then straight into...
||--2222--||
-
||-----------x8---------||
||----------------------||
||----------------------||
||----------------------||
||----------------------||
||--32023-32023--6~-0~--||


||---------------------------------||
||---------------------------------||
||---------------------------------||
||---------------------------------||
||---------------------------------||
||--111-111-1110-111-111-111-1110--||


||------||
||--0~--|| then straight into...
||--0~--||
-
||-------------x16------||
||----------------------||
||----------------------||
||----------------------||
||----------------------||
||--22-22-22-22---2p1~--||



||--0~---------0~--||
||--0~---------0~--||
||--0~---------0~--|| Let open strings ring out.
||--0~---------0~--||
||-----------------||
||----1/55-6-2-----||



||---------------------------------||
||---------------------------------||
||---------------------------------||
||---------------------------------||
||---------------------------------||
||--111-111-1110-111-111-111-1110--||


Then hit random harmonics in the 5th & 4th fret position.
Then the best part of the whole, my personal favourite...


||-----------------||
||-----------------||
||-----------------|| Play it like you mean it...
||-----------------||
||----00-00-00-00--||
||--/-00-00-00-00--||
            
Submit corrections

comments powered by Disqus
↑ Back to top | Will Haven Tabs for Miguel... Lyrics for acoustic guitar and electric guitar. 1 Tablatures and chords are parodies/interpretations of the original songs. You may use it for private study, scholarship, research or language learning purposes only