>
 >
June

June Guitar Tabs

Will Haven - June chords, tabs, tablatures, lyrics

Guitar lessons | Add/correct | Request | Top 50 tabs Artists:  A B C D E F G H I J K L M N O P Q R S T U V W X Y Z 0-9

June Guitar Tabs – Will Haven

CD, Sheet music, Poster

Do you like June? Share with your friends now
Tabs
JUNE

drop - d tuning

Riff 1:
h- harmonics

  
E||--------------------------------------------------------------------------  
B||--------------------------------------------------------------------------  
G||--8--8-8------------8--8-8------------8--8-8------------8-----------------
D||--7--7-7------------7--7-7------------7--7-7------------7--0-0---0-8-8----
A||--6--6-6------------6--6-6------------6--6-6------------6--0-0---0-8-8----
D||----------4--4-4-4----------4--4-4-4----------4--4-4-4-----0-0---0-8-8----
             H  H H H          H  H H H          H  H H H

Riff 2:
v -  volume swell
   
   |------------------------------------|
   |------------------------------------|
   |---7---8--10---8---7---7---8--10-8--|
   |------------------------------------|
   |---5---6---8---6---5---5---6---8-6--|
   |------------------------------------|
       v   v   v   v   v   v   v   v v

Riff 3:
 

  |-------------------------------||
  |-------------------------------||
  |---12-11--12---7---8---7---8---||
  |-------------------------------||
  |---10--9--10---5---6---5---6---||
  |-------------------------------||
      v   v   v   v   v   v   v 


Riff 4:
  
  
  |--------------------||
  |--------------------||
  |--------------------||
  |--0-0---1--1-1-1----||
  |--0-0---1--1-1-1----||
  |--0-0---1--1-1-1----||
               

Riff 5:
  

 
|----------------------------------------------------------------------------------------------|
|----------------------------------------------------------------------------------------------|
|-10-10-10-10-10-10-10-10-10-10-10-10-10-10-10--9--9--9--3---3-3-3-3--3--3-3-3-----------------|
|-------------------------------------------------------------------------------2-2-2-2-2-2-2--|
|--8--8--8--8--8--8--8--8--8--8--8--8--8--8--8--7--7--7--1---1-1-1-1--1--1-1-1--2-2-2-2-2-2-2--|
|-------------------------------------------------------------------------------2-2-2-2-2-2-2--|

Riff 6:   
  h - harmonics
  |-------------------------------------------||
  |-------------------------------------------||
  |-------------------------------------------||
  |-------------------------------------------||
  |-------------------------------------------||
  |--4-4-4---4---4-4-4---4---4-4-4---4-4-0-0--||
     H H H   H   H H H   H   H H H   H H





Comments


Popular Will Haven tabs & chords
Alpha Male Tabs
Bats Tabs
Carpe Diem 2 Tabs
Climbing Out Of This Bottle Tabs
Dolph Lundgren Tabs
Fresno Tabs
Jaworski Tabs
Miguel.. Tabs
Rut Tabs
Slopez Tabs


Song lyrics



↑ Back to top | Tablatures and chords are parodies/interpretations of the original songs. You may use it for private study, scholarship, research or language learning purposes only
© 2014 AZChords.com Contact us | Privacy policy | DMCA | Add/correct tabs | Request tabs | Top 50 tabs