» » »

Will Haven, Jaworski Tabs (ver.1)

Artists:  A B C D E F G H I J K L M N O P Q R S T U V W X Y Z # 

Jaworski Tabs (ver.1)

Will Haven Tabs
 Rating:
4/5 (4 votes)
Jaworski lessons Tabs too difficult? Try these video lessons and learn fast
                jaworski

nice up-beat hardcore song

Drop D Tuning

Riff 1
E||---------------|
B||---------------|
G||---------------|
D||-7-7--7-4-8-8--|
A||-7-7--7-4-8-8--|
D||-7-7--7-4-8-8--|

Riff 2
|---------------|
|---------------|
|---------------|
|-2-2--2-1-5-5--|
|-2-2--2-1-5-5--|
|-2-2--2-1-5-5--|

Riff 3
|-----------------|
|-----------------|
|-----------------|
|-9-9--9-11--8-8--|
|-9-9--9-11--8-8--|
|-9-9--9-11--8-8--|

Riff 4
|----------------------------------|
|----------------------------------|
|----------------------------------|
|-10--0-0--10--0-0--10--0-0-6-6-6--|
|-10--0-0--10--0-0--10--0-0-6-6-6--|
|-10--0-0--10--0-0--10--0-0-6-6-6--|
            
Submit corrections

comments powered by Disqus
↑ Back to top | Will Haven Tabs for Jaworski. Lyrics for acoustic guitar and electric guitar. Tablatures and chords are parodies/interpretations of the original songs. You may use it for private study, scholarship, research or language learning purposes only