» » »

Will Haven, Foreign Film Tabs (ver.1)

Artists:  A B C D E F G H I J K L M N O P Q R S T U V W X Y Z # 

Foreign Film Tabs (ver.1)

Will Haven Tabs
 Rating:
4/5 (5 votes)
Foreign Film lessons Tabs too difficult? Try these video lessons and learn fast
                Will Haven
El Diablo

Tuning: B,F#,B,E,G#,C#

Riff 1:
|-------------------------------------------------------------|
|-------------------------------------------------------------|
|---7-777-77-777710101010101010-7-777-77-7777-6-666-66-7777---|
|---0-000-00-0000-0-000-00-0000-0-000-00-0000-0-000-00-0000---|
|---0-000-00-0000---------------------------------------------|
|---0-000-00-0000-8-888-88-8888-5-555-55-5555-4-444-44-5555---|

Riff 2:
|-----------------------------------------------------|
|-----------------------------------------------------|
|---7-7-7-7-7-7101010101010-7-7-7-7-7-7-6-6-6-7-7-7---|
|---0-0-0-0-0-0-0-0-0-0-0-0-0-0-0-0-0-0-0-0-0-0-0-0---|
|---0-0-0-0-0-0---------------------------------------|
|---0-0-0-0-0-0-8-8-8-8-8-8-5-5-5-5-5-5-4-4-4-5-5-5---|

Riff 3:
|-----------------------------------------------------|
|-----------------------------------------------------|
|---2-2-2-2-2-2-5-5-5-5-5-5-4-4-4-4-4-4-4-4-4-4-5-5---|
|---0-0-0-0-0-0-3-3-3-3-3-3-2-2-2-2-2-2-2-2-2-3-3-3---|
|---0-0-0-0-0-0-3-3-3-3-3-3-2-2-2-2-2-2-2-2-2-3-3-3---|
|---0-0-0-0-0-0-3-3-3-3-3-3-2-2-2-2-2-2-2-2-2-3-3-3---|

Riff 4:
|------------------------------------------|
|------------------------------------------|
|---14-14-14-14-14-14--14-15-15-15-15-15---|
|------------------------------------------|
|---12-12-12-12-12-12--12-13-13-13-13-13---|
|----0--0--0--0--0--0---0--0--0--0--0--0---|

|------------------------------------------|
|------------------------------------------|
|---14-14-14-14-14-14--14-15-15-15-17-17---|
|------------------------------------------|
|---12-12-12-12-12-12--12-13-13-13-15-15---|
|----0--0--0--0--0--0---0--0--0--0--0--0---|
            
Submit corrections

comments powered by Disqus
↑ Back to top | Will Haven Tabs for Foreign Film. Lyrics for acoustic guitar and electric guitar. Tablatures and chords are parodies/interpretations of the original songs. You may use it for private study, scholarship, research or language learning purposes only