» » »

Will Haven, Fisk Tabs (ver.1)

Artists:  A B C D E F G H I J K L M N O P Q R S T U V W X Y Z # 

Fisk Tabs (ver.1)

Will Haven Tabs
 Rating:
4/5 (4 votes)
Fisk lessons Tabs too difficult? Try these video lessons and learn fast
                FISK

Drop D Tuning

P - MUTE   H - HARMONIC

Riff 1
E||----------------------------------|
B||----------------------------------|
G||-------------------------5-5-5-5--|
D||-0-0-0-0-0-1-1-1-2-2-2-2-4-4-4-4--|
A||-0-0-0-0-0-1-1-1-2-2-2-2-3-3-3-3--|
D||-0-0-0-0-0-1-1-1-2-2-2-2----------|
    P P P P     P P P P P P

Riff 2
|--------------------------------------|
|--------------------------------------|
|---------7-7-8-8-5-5-5-5-5-5----------|
|-0-0-0-0---------------------0-1-1-1--|
|-0-0-0-0-5-5-6-6-3-3-3-3-3-3-0-1-1-1--|
|-0-0-0-0---------------------0-1-1-1--|

Riff 3
|--------------------------------------|
|--------------------------------------|
|---------5-5-3-3-6-6-6-6-6-6----------|
|-0-0-0-0---------------------0-3-2-1--|
|-0-0-0-0-3-3-1-1-4-4-4-4-4-4-0-3-2-1--|
|-0-0-0-0---------------------0-3-2-1--|

Riff 4
|-------------------------------|
|-------------------------------|
|------------------11-11-11-11--|
|-0-0-0--0-0--0-0---------------|
|-0-0-0--0-0--0-0---8--8--8--8--|
|-0-0-0--0-0--0-0---------------|
  P P    P    P

Riff 5
|------------------------------|
|------------------------------|
|------------------------------|
|-0-0-1-1-1-1-2-2-2-2-3-3-3-3--|
|-0-0-1-1-1-1-2-2-2-2-3-3-3-3--|
|-0-0-1-1-1-1-2-2-2-2-3-3-3-3--|

Riff 6
|------------------------------|
|------------------------------|
|-2-2-3-3-3-3-4-4-4-4-5-5-5-5--|
|-0-0-1-1-1-1-2-2-2-2-3-3-3-3--|
|-0-0-1-1-1-1-2-2-2-2-3-3-3-3--|
|-0-0-1-1-1-1-2-2-2-2-3-3-3-3--|
            
Submit corrections

comments powered by Disqus
↑ Back to top | Will Haven Tabs for Fisk. Lyrics for acoustic guitar and electric guitar. Tablatures and chords are parodies/interpretations of the original songs. You may use it for private study, scholarship, research or language learning purposes only