» » »

Finest Our Tabs (ver.1)

Artists:  A B C D E F G H I J K L M N O P Q R S T U V W X Y Z # 

Finest Our Tabs (ver.1)

Will Haven
Rating:
0/5 (0 votes)

Hard to play? Try these video lessons and learn fast.
                Will Haven
Carpe Diem


Tuning: B,F#,B,E,G#,C#


Riff 1:
|------------------------------------|
|------------------------------------|
|---17--16--17--16--14--13--14--13---|
|------------------------------------|
|------------------------------------|
|---15--14--15--14--12--11--12--11---|

Riff 2:
 begin with
|---------------------------|
|---------------------------|
|---------------------------|
|---------------------------|
|---------------------------|
|---333333333333333333333---|

then:
|-----------------------------------------------------------------|
|--------------------------------------(gtr2 plays sometimes)-----|
|------------------------------------(181818181818-171717171717)--|
|-----------------------------------------------------------------|
|-----------------------------------------------------------------|
|---8888888888888-111111-151515151515-161616161616-151515151515---|

|-----------------------------------------------------------------|
|-----------------------------------------------------------------|
|-----------------------------------------------------------------|
|-----------------------------------------------------------------|
|-----------------------------------------------------------------|
|---8888888888888-111111-151515151515-141414141414141414141414----|

 end on:
|--------|
|--------|
|--------|
|--------|
|---3----|
|---3----|


Riff 3:
|---------------------------------|
|---------------------------------|
|---------------------------------|
|---------------------------------|
|---------------------------------|
|---3-33333-33333-3333-11-11-11---|

Riff 4:
|---------------------------------|
|---6-66666-66666-6666------------|
|---5-55555-55555-5555/13-13-13---|
|---3-33333-33333-3333/-----------|
|---3-33333-33333-3333/-----------|
|---3-33333-33333-3333/11-11-11---|
            
Hard to play? Try these video lessons and learn fast. | Correct




comments powered by Disqus
↑ Back to top | Tablatures and chords are parodies/interpretations of the original songs. You may use it for private study, scholarship, research or language learning purposes only