» » »

Will Haven, Extinguish Tabs (ver.1)

Artists:  A B C D E F G H I J K L M N O P Q R S T U V W X Y Z # 

Extinguish Tabs (ver.1)

Will Haven Tabs
Rating:
0/5 (0 votes)
Extinguish lessons Tabs too difficult? Try these video lessons and learn fast
                EXTINGUISH

drop-d tuning

Riff 1:
 

   E||------------------------------|| 
   B||------------------------------|| 
   G||--8-8---8-8-------------------||
   D||--7-7---7-7-------------------||
   A||--6-6---6-6-------------------||
   D||--------------0-0---0-0-------||
        

Riff 2:
 
   
   |-------------------------||
   |-------------------------||
   |---------6--6-6--10-10---||
   |--0--0---0--0-0--0--0----||
   |--0--0---4--4-4--8--8----||
   |--0--0---0--0-0--0--0----||
                                                               

Riff 3:
  p - palm mute

  |----------------------------------||
  |----------------------------------||
  |---6--6--6--3--3--3---------------||
  |---------------------0-1-1-1-1-0--||
  |---4--4--4--1--1--1--0-1-1-1-1-0--||
  |---------------------0-1-1-1-1-0--||
                          p p p p


Riff 4:
  
  
  |------------------------------------||
  |---------------------------3---3----||
  |---------------------------2---2----||
  |--3--3-3-3---2--2-2-2---0--0-0-0----||
  |--3--3-3-3---2--2-2-2---0--0-0-0----||
  |--3--3-3-3---2--2-2-2---0--0-0-0----||
               

Riff 5:
  

  |--------------------------5--5--5-----||                          
  |--------------------------3--3--3-----||  
  |--2--2--2--2--1--1--1--2--2--2--2-----||                       
  |--0--0--0--0--0--0--0--0--0--0--0-----||                      
  |--0--0--0--0--0--0--0--0--0--0--0-----||                        
  |--------------------------------------||
            
Submit corrections

comments powered by Disqus
↑ Back to top | Will Haven Tabs for Extinguish. Lyrics for acoustic guitar and electric guitar. Tablatures and chords are parodies/interpretations of the original songs. You may use it for private study, scholarship, research or language learning purposes only