» » »

Dolph Lunggren Tabs (ver.1)

Artists:  A B C D E F G H I J K L M N O P Q R S T U V W X Y Z # 

Dolph Lunggren Tabs (ver.1)

Will Haven
Rating:
0/5 (0 votes)

Tabs too difficult? Try these video lessons and learn fast.
                			

Drop B tuning  (B,F#,B,E,G#,C#)


||----------------------------||
||------------2------------2--||
||------------0------------0--|| 
||----------------------------||
||----------------------------||
||--01014-0101---01014-0101---||


||-----------------------------------------||
||--------------------------------------6--||
||--------------------------------------6--||
||-----------------------------------------||
||-------------------^---------------------||
||--00-000-000-000-001-00-000-000-000-00---||


||--------------------||
||--66-666-666-6------||
||--66-666-666-6------||
||--------------------||
||--------------------||
||---------------/0\--|| <-- slide up and down on bass string.


||----------------------------||
||------------2------------2--||
||------------0------------0--|| 
||----------------------------||
||----------------------------||
||--01014-0101---01014-0101---||

||-----------------------------------------||
||--------------------------------------0--||
||--------------------------------------6--||
||-----------------------------------------||
||-------------------^---------------------||
||--00-000-000-000-001-00-000-000-000-00---||

||--------------------||
||--00-000-000-0------||
||--66-666-666-6------||
||--------------------||
||--------------------||
||---------------/0\--|| <-- slide up and down on bass string.


||----------------------||
||----------------------||
||--6-------6--------6--|| 
||--0-------0--------0--||
||----------------------||
||---xxxxxxx--xxxxxxx---||

||------------||
||---0--0-----||
||---0--0-----||
||---0--0-----|| Play hard (its quite hard to tell whats played)
||---------^--||
||--2--3---5--||

||----------------------||
||----------------------||
||--6-------6--------6--|| 
||--0-------0--------0--||
||----------------------||
||---xxxxxxx--xxxxxxx---||


||------------||
||-----0------||
||---0-0------||
||---x--------|| Play hard
||---x--------||
||--2---0-00--||

||--------------||
||--------------||
||--------------||
||--0-6-5-3232--||
||--0-6-5-3232--||
||--0-6-5-3232--||
            
Tabs too difficult? Try these video lessons and learn fast.


comments powered by Disqus
↑ Back to top | Tablatures and chords are parodies/interpretations of the original songs. You may use it for private study, scholarship, research or language learning purposes only