» » »

Climbing Out Of This Bottle Tabs (ver.1)

Artists:  A B C D E F G H I J K L M N O P Q R S T U V W X Y Z # 

Climbing Out Of This Bottle Tabs (ver.1)

Will Haven
Rating:
0/5 (0 votes)

Hard to play? Try these video lessons and learn fast.
                climbing out this bottle

DROP-D TUNING

Riff 1:
  V - VOLUME SWELL

   E||-------------|-----------------|
   B||-------------|-----------------|
   G||--14---13----|--14---13---17---|
   D||-------------|-----------------|
   A||--12---11----|--12---11---15---|
   D||-------------|-----------------|
        V    V        V    V    V

Riff 2:

   
   |--------------------------------------------------------------------|
   |--------------------------------------------------------------------|
   |--------5--5-5-5---------5--5-5-5---------5--5-5-5--5-5-5--5-5-5----|
   |--0-0---3--3-3-3---0-0---3--3-3-3---0-0---3--3-3-3--2-2-2--3-3-3----|
   |--0-0---3--3-3-3---0-0---3--3-3-3---0-0---3--3-3-3--2-2-2--3-3-3----|
   |--0-0---3--3-3-3---0-0---3--3-3-3---0-0---3--3-3-3--2-2-2--3-3-3----|
                                                               

Riff 3:
   P - PALM MUTE

  |------------------------------------------------|
  |------------------------------------------------|
  |-----------------------------------------5-5----|
  |--0-----------0-----------0-----------0--4-4----|
  |--0-----------0-----------0-----------0--3-3----|
  |--0---1-1-1-1-0---1-1-1-1-0---1-1-1-1-0--0-0----|
         P P P P     P P P P     P P P P             


Riff 4:
 
  
  |------------------------------------------|
  |------------------------------------------|
  |------------------------------------------|
  |--0-1-1-1---0-1-1-1---0-1-1-1---3--3-3----|
  |--0-1-1-1---0-1-1-1---0-1-1-1---3--3-3----|
  |--0-1-1-1---0-1-1-1---0-1-1-1---3--3-3----|
               

Riff 5:
 

  |-------------------------------------------|                      
  |-------------------------------------------|
  |--2-3-3-3---2-3-3-3---2-3-3-3---5--5-5-----|                      
  |--0-1-1-1---0-1-1-1---0-1-1-1---3--3-3-----|                       
  |--0-1-1-1---0-1-1-1---0-1-1-1---3--3-3-----|                      
  |--0-1-1-1---0-1-1-1---0-1-1-1---3--3-3-----|
            
Hard to play? Try these video lessons and learn fast. | Correct




comments powered by Disqus
↑ Back to top | Tablatures and chords are parodies/interpretations of the original songs. You may use it for private study, scholarship, research or language learning purposes only