» » »

Will Haven, Bats Tabs (ver.1)

Artists:  A B C D E F G H I J K L M N O P Q R S T U V W X Y Z # 

Bats Tabs (ver.1)

Will Haven Tabs
 Rating:
4.2/5 (5 votes)
Bats lessons Tabs too difficult? Try these video lessons and learn fast
                Will Haven
Carpe Diem


Tuning: B,F#,B,E,G#,C#


Riff 1: (w/flanger)
|-----------------------------------------|
|-----------------------------------------|
|---14-14-14-14-14-14-13-13-13-17-17-17---|
|-----------------------------------------|
|---12-12-12-12-12-12-11-11-11-15-15-15---|
|----0--0--0--0--0--0--0--0--0--0--0--0---|

Riff 2:
|-----------------------------------------------------|
|-----------------------------------------------------|
|---6-6-6-6-6-6-6-6-6-6-6-6101010101010101010101010---|
|---4-4-4-0-0-0-4-4-4-0-0-0-8-8-8-0-0-0-8-8-8-0-0-0---|
|---4-4-4-0-0-0-4-4-4-0-0-0-8-8-8-0-0-0-8-8-8-0-0-0---|
|---4-4-4-0-0-0-4-4-4-0-0-0-8-8-8-0-0-0-8-8-8-0-0-0---|

Riff 3:
|---------------------------|
|---------0-----0-----0-----|
|---------0-----0-----0-----|
|---------0-----0-----0-----|
|---------------------------|
|---4-4-4---4-4---4-4---4---|

Riff 4:
|-------------------------------------------------------|
|----------------------------0--------------------------|
|----------------------------0--------------------------|
|--------333333333-----0-----0--------333333333-----0---|
|---99-0-333333333-999-0---------99-0-333333333-999-0---|
|---99-0-333333333-999-0---------99-0-333333333-999-0---|

 (02:59)
|---------------------------------------------------------------|
|---------------------------------------------------------------|
|---1111-55555555511111111111111-1111-55555555511111111111111---|
|---99-0-333333333-999-000000000-99-0-333333333-999-000000000---|
|---99-0-333333333-999-000000000-99-0-333333333-999-000000000---|
|---99-0-333333333-999-000000000-99-0-333333333-999-000000000---|

Riff 5: (w/ flanger)
|------------------------------------------------------|
|------------------------------------------------------|
|---101010101010101010101010-8-8-8-8-7-8-7-7-7-7-7-7---|
|----0-0-0-0-0-0-0-0-0-0-0-0-0-0-0-0-0-0-0-0-0-0-0-0---|
|------------------------------------------------------|
|------------------------------------------------------|

Riff 6:
|-------------------------------------------------------|
|---8-8-8-8-8-8--7-7-7-7-7-7--4-4-4-4-4-4-4-4-4-4-4-4---|
|---7-7-7-7-7-7--6-6-6-6-6-6--3-3-3-3-3-3-3-3-3-3-3-3---|
|---5-5-5-5-5-5--4-4-4-4-4-4--1-1-1-0-0-0-1-1-1-0-0-0---|
|---5-5-5-5-5-5--4-4-4-4-4-4--1-1-1-0-0-0-1-1-1-0-0-0---|
|---5-5-5-5-5-5--4-4-4-4-4-4--1-1-1-0-0-0-1-1-1-0-0-0---|

Riff 7:
|-----------------------------------------------------|
|---5-5-5-5-5-5-5-5-5-5-5-5-5-5-5-5-5-5-5-5-5-5-5-5---|
|---4-4-4-4-4-4-4-4-4-4-4-4-4-4-4-4-4-4-4-4-4-4-4-4---|
|---2-2-2-0-0-0-2-2-2-0-0-0-2-2-2-0-0-0-2-2-2-0-0-0---|
|---2-2-2-0-0-0-2-2-2-0-0-0-2-2-2-0-0-0-2-2-2-0-0-0---|
|---2-2-2-0-0-0-2-2-2-0-0-0-2-2-2-0-0-0-2-2-2-0-0-0---|
            
Submit corrections

comments powered by Disqus
↑ Back to top | Will Haven Tabs for Bats. Lyrics for acoustic guitar and electric guitar. Tablatures and chords are parodies/interpretations of the original songs. You may use it for private study, scholarship, research or language learning purposes only