» » »

Will Haven, Baseball Theory Tabs (ver.1)

Artists:  A B C D E F G H I J K L M N O P Q R S T U V W X Y Z # 

Baseball Theory Tabs (ver.1)

Will Haven Tabs
 Rating:
4/5 (4 votes)
Baseball Theory lessons Tabs too difficult? Try these video lessons and learn fast
                BASEBALL THEORY

DROP-D TUNING

Riff 1:
   INTRO

   E||----------------------------| 
   B||----------------------------| 
   G||--8-8---8-8---8-8---8-8-----|
   D||----------------------------|
   A||--6-6---6-6---6-6---6-6-----|
   D||----------------0-----------|
        

Riff2:
  PALM MUTING - P
   
   |------------------------------------------------|
   |------------------------------------------------|
   |---------------------------------3-3-3-3-2-2----|
   |--------------------------1-0-0-----------------|
   |--------------------------1-0-0--1-1-1-1-0-0----|
   |--1---1-1---1-1---1-1---1-1-0-0-----------------|
          P     P     P     P                                                
    

Riff 3:
    

  |-------------------------------------------------|
  |-------------------------------------------------|
  |---7-7-7--7--7-7--7-7--3--3-3-3-5--5-5-5--3-3----|
  |---0-0-0--0--0-0--0-0----------------------------|
  |---5-5-5--5--5-5--5-5--1--1-1-1-3--3-3-3--1-1----|
  |---0-0-0--0--0-0--0-0--1--1-1-1-3--3-3-3--1-1----|
                          


Riff 4:
  PALM MUTING - P
  
  |---------------------------|
  |---------------------------|
  |----------------8--8-8-----|
  |--0-------------7--7-7-----|
  |--0-------------6--6-6-----|
  |--0---0-0-0-0--------------|
         P P P P   

Riff 5:
  follow the rhythm

  |---------------------------                       
  |---------------------------
  |--8-8--8--8-8--8--8--8-8-8-                        
  |--7-7--7--7-7--7--7--7-7-7- LISTEN FOR RHYTHM                      
  |--6-6--6--6-6--6--6--6-6-6-                      
  |---------------------------                    
   
Riff 6:
  
  |------------------------------------------|
  |---3--3-3-3--3--3-3-3--4-4-4-4--4-4-4-4---|
  |---2--2-2-2--2--2-2-2--3-3-3-3--3-3-3-3---|
  |---0--0-0-0--0--0-0-0--1-1-1-1--1-1-1-1---|
  |---0--0-0-0--0--0-0-0--1-1-1-1--1-1-1-1---|
  |---0--0-0-0--0--0-0-0--1-1-1-1--1-1-1-1---|
  
Riff 7:
  PALM MUTING THE LOT
  
  |-----------------------------------|
  |-----------------------------------|
  |-----------------------------------|
  |-----------------------------------|
  |--------------------------1-0-0----|
  |--1---1-1---1-1---1-1---1-1-0-0----|

Riff 8:

  |------------------------------|
  |------------------------------|
  |---8-8--8--8-8--8-8-8---------|
  |---7-7--7--7-7--7-7-7--0-0----|
  |---6-6--6--6-6--6-6-6--0-0----|
  |-----------------------0-0----|
            
Submit corrections

comments powered by Disqus
↑ Back to top | Will Haven Tabs for Baseball Theory. Lyrics for acoustic guitar and electric guitar. Tablatures and chords are parodies/interpretations of the original songs. You may use it for private study, scholarship, research or language learning purposes only