» » »

Will Haven, Alpha Male Tabs (ver.1)

Artists:  A B C D E F G H I J K L M N O P Q R S T U V W X Y Z # 

Alpha Male Tabs (ver.1)

Will Haven Tabs
Rating:
4/5 (1 vote)
Alpha Male lessons Tabs too difficult? Try these video lessons and learn fast
                Will Haven
Carpe Diem

Tuning: B,F#,B,E,G#,C#

*: harmonics


Riff 1:
|----------------------------------------------------------------|
|----------------------------------------------------------------|
|---66-66-66-66-66-66-66-66--------------------------------------|
|---00-00-00-00-00-00-00-00---1-1-x-xx1-1-x-xx1-1-x-xx1-1-x-xx---|
|------55----55----55----55---1-1-x-xx1-1-x-xx1-1-x-xx1-1-x-xx---|
|---55-0--55-0--55-0--55-0----1-1-x-xx1-1-x-xx1-1-x-xx1-1-x-xx---|

Riff 2:
|--------------------------------------|-------------|
|--------------------------------------|---(01:19)---|
|--------------------------------------|-------------|
|--------------------------------------|-------------|
|--------------------------------------|--------4----|
|---44-4-1xx44-4-1xx44-4-1xx44-4-1xx---|---44-4-4----|
                                                *
Riff 3:
|------------------------------------------------------|
|------------------------------------------------------|
|---44444-44444-44444-44444-44444-44444----------------|
|---66666-66666-22222-22222-66666-66666----------------|
|---66666-66666-22222-22222-66666-66666----------------|
|---66666-66666-22222-22222-66666-66666-000000000000---|
 end on:
|---------|
|---------|
|---------|
|---0-----|
|---0-----|
|---0-----|

Riff 4:
|-----------------------------------------------------|
|-----------------------------------------------------|
|-----------------------------------------------------|
|-----------------------------------------------------|
|------------------------------------------------5555-|
|---02-02-02-02-02-02-02-03-02-02-02-02-02-02-02------|
                                                 ****
|-----------------------------------------------------|
|-----------------------------------------------------|
|-----------------------------------------------------|
|-----------------------------------------------------|
|-----------------------------------------------------|
|---02-02-02-02-02-02-02-03-02-02-02-02-02-02-02-03---|

|---------------------------------------------------------|
|---------------------------------------------------------|
|---7-7-77-7-7--131313131313---7-7-77-7-7--131313131313---|
|---------------------------------------------------------|
|---5-5-55-5-5--111111111111---5-5-55-5-5--111111111111---|
|---0-0-00-0-0-----------------0-0-00-0-0-----------------|

|-----------------------------------------------------|
|-----------------------------------------------------|
|-----------------------------------------------------|
|-----------------------------------------------------|
|-----------------------------------------------------|
|---02-02-02-03-02-02-02-03-02-02-02-03-02-02-02-03---|

|---------------------------------------------------------|
|---------------------------------------------------------|
|---7-7-77-7-7--131313131313---7-7-77-7-7--131313131313---|
|---------------------------------------------------------|
|---5-5-55-5-5--111111111111---5-5-55-5-5--111111111111---|
|---0-0-00-0-0-----------------0-0-00-0-0-----------------|

 Riff 2

Riff 5:
 (03:17) (03:48)
|--------------------------------------|
|--------------------------------------|
|--------------------------------------|
|--------------------------------------|
|--------------------------------------|
|---0-0-0-xxx0-0-0-xxx0-0-0-xxx0-0-0---|
 (03:39)
|---------------------------------------------|
|---------------------------------------------|
|---------------------------------------------|
|---------------------------------------------|
|---------444-------444-------444-------444---|
|---0-0-0-444-0-0-0-444-0-0-0-444-0-0-0-444---|
          ***       ***       ***       ***
 Riff 3
            
Submit corrections

comments powered by Disqus
↑ Back to top | Will Haven Tabs for Alpha Male. Lyrics for acoustic guitar and electric guitar. Tablatures and chords are parodies/interpretations of the original songs. You may use it for private study, scholarship, research or language learning purposes only