» » »

Wild Nothing, Summer Holiday Tabs (ver.1)

Artists:  A B C D E F G H I J K L M N O P Q R S T U V W X Y Z # 

Summer Holiday Tabs (ver.1)

Wild Nothing Tabs
Rating:
5/5 (3 votes)
Hard to play? Try these video lessons and learn fast.
                -----------------------------------------------------------------------------
-----------------------------------------------------------------------------

Tuning: standard

Easily my favorite track off 'Gemini'. 
I recommend checking out the singer's former band, Facepaint. 
I know a couple tracks from that, as well, so like, 
maybe leave a comment if you're interested and I'll 
check back next time I've got absolutely nothing to do.

I apologize in advance for the format. I haven't seen tabs for a while 
and kind of forgot how to give them structural clarity.


Non-standard chords used:
-------------------------

I have no idea what these chords are actually called, but here's how to play them:

Emaj* G#min*  G#min**
----   -11-    -11-
-xx-   -12-    -12-
-13-   -13-    -11-
-14-   -11-    -11-
-11-   ----    ----
----   ----    ----


Song
*****************************

Verse
-----

BASIC GUITAR CHORD PROGRESSION:

Emaj*/Emaj*/G#min*/G#min**

BASS LINE: (not sure about the rhythm I've implied here, but these are the notes anyway).

G|--------------------------------------------------------------------------|
D|--------------------------------------------------------------------------|
A|------------4/6-666-------------------------------------------------------|
E|-0-0-00-00----------4-44-44-4--7-7-77-------------------------------------|



Chorus
-------

GUITAR CHORD PROGRESSION:

F#min/C#min/F#min/C#min/B/A/B/A

BASS LINE: follows root notes of guitar chords w/ minor rhythm changes

GUITAR FILLS: Too damn hard to pick out of the mix.



Bridge
-------

GUITAR:

e|--------------------------------------------------------------------------|
B|-14-12--------------------------------14-12-------------------------------|
G|-------13h14-14---------------13-----------13h14-14-----------------------|
D|-----------------16-14--14-16-----------------------16-14-14-13-----------|
A|--------------------------------------------------------------------------|
E|--------------------------------------------------------------------------|

BASS LINE: sounds like it's following the guitar bit tabbed above, but not sure.

GUITAR CHORDS THAT COME IN OVER THE TOP:

A/B/A/B




The last verse ('You've got some charm I must admit') is just the verse stripped 
down to the bass line.



Anyway. That's it.

Oh, wait: this is what I think the lyrics are-
-----------------------------------------------

YOu speak in tounges I can't resist
You run me round how can I fit
Driving to your parents house just for a visit and I'm
sleeping in your brothers bed
But won't you sneak into my room and 
cuddle under the covers
talk nonsense in your sleep

ohhhh
woah
woah
woah


oh-ey-ou
oh-ey-ou

you got my guard down once again
and i cant wait to let you in
Driving to your parents house just for a visit and I'm
sleeping in your brothers bed
But won't you sneak into my room and 
cuddle under the covers
talk nonsense in your sleep

ohhhh
woah
woah
woah


you've got some charm i must admit
don't let me wreck myself again
Driving to your parents house just for a visit and I'm
sleeping in your brothers bed
But won't you sneak into my room and 
cuddle under the covers
talk nonsense in your sleep


ohhhh
woah
woah
woah


oh-ey-ou
oh-ey-ou
oh-ey-ou
oh-ey-ou
            

comments powered by Disqus
↑ Back to top | Wild Nothing Tabs for Summer Holiday. Lyrics for acoustic guitar and electric guitar. Tablatures and chords are parodies/interpretations of the original songs. You may use it for private study, scholarship, research or language learning purposes only