» » »

Wildhearts, Vanilla Radio Bass tabs (ver.1)

Artists:  A B C D E F G H I J K L M N O P Q R S T U V W X Y Z # 

Vanilla Radio Bass tabs (ver.1)

Wildhearts Tabs
Rating:
0/5 (0 votes)
Vanilla Radio lessons Tabs too difficult? Try these video lessons and learn fast
                Standard Tuning - E A D G

Intro:
G|------------------------------|
D|------------------------------|
A|-9-9-9-9-8-8-8-8-7-7-6--4-6-6-|x3
E|------------------------------|

G|----------------------|
D|----------------------|
A|-9-9-9-9-8-8-8-8--7-7-|
E|----------------------|

Pre-Verse
G|------------------------------------------------------------|
D|------------------------------------------------------------|
A|-6-6-6/7/6-6-6--6-6-6/7/6-6-6--6-6-6/7/6-6-6--6-6-6/7/6-6-6-|x2
E|------------------------------------------------------------|

G|----------------------|
D|----------------------|
A|-9-9-9-9-8-8-8-8--7-7-|
E|----------------------|

Verse:
G|-----------------------------------------------------------|
D|-----------------------------------------------------------|
A|-6-4--6-6--6-4--6-6--6-4--6-6--4--2------------------------|x2
E|-----------------------------------4-4-4-4-2-2-2-2-1-1-1-1-|

Pre - Chorus:
G|----------------------------------------------------------------|
D|----------------------------------------------------------------|
A|-4-4-4-4-4-4-4-4-4-4-4-4-4-4-4-4-2-2-2-2-2-2-2-2-2-2-2-2-2-2-2-2|
E|----------------------------------------------------------------|

G|-------------------------------------------------|
D|-------------------------------------------------|
A|---------------------1-1-1-----------------------|
E|-2-2-2-2-2-2-2-2-2-2-------4-4-4-4-4-4-4-4--2--1-|

Chorus:
G|--------------------------------------------------------------|
D|--------------------------------------------------------------|
A|-6--6-6-6-6-6-6----------------3--3-3-3-3-3-3-4-4-4-4-5-5-5-5-|x4
E|----------------4--4-4-4-4-4-4--------------------------------|

Outro:
G|----------------------|
D|----------------------|
A|-9-9-9-9-8-8-8-8--7---|
E|----------------------|
            

comments powered by Disqus
↑ Back to top | Wildhearts Bass for Vanilla Radio. Lyrics for acoustic guitar and electric guitar. Tablatures and chords are parodies/interpretations of the original songs. You may use it for private study, scholarship, research or language learning purposes only