» » »

Wildhearts, Top Of The World Tabs (ver.1)

Artists:  A B C D E F G H I J K L M N O P Q R S T U V W X Y Z # 

Top Of The World Tabs (ver.1)

Wildhearts Tabs
 Rating:
3.8/5 (5 votes)
Top Of The World lessons Tabs too difficult? Try these video lessons and learn fast
                 Gtr I
  E  E E  Q   Q  E   E E  E E  E E  Q    E  E E  Q   Q  E   E E  E E  E E  Q
|------------------|-------------------|------------------|----------------|
|--------14--12----|-----10---12---10--|--------14--12----|-----10---12--10|
|-9s11-----------9-|-9-9----9----9-----|-9s11-----------9-|-9-9----9----9--|
|------9-----------|-------------------|------9-----------|----------------|
|------------------|-------------------|------------------|----------------|
|------------------|-------------------|------------------|----------------|


  E  E E  Q   Q  E   E E  E E  E E  Q    Q  Q  Q  Q    Q    Q  Q   Q
|------------------|-------------------|-------7-----|---------7-------|
|--------14--12----|-----10---12---10--|----9-----9--|-----10-----10---|
|-9s11-----------9-|-9-9----9----9-----|-9-----------|-9---------------|
|------9-----------|-------------------|-------------|-----------------|
|------------------|-------------------|-------------|-----------------|
|------------------|-------------------|-------------|-----------------|
|
| Gtr II
| W                  W                   W             H.          E E
|------------------|-------------------|-------------|-----------------|
|------------------|-------------------|-------------|-----------------|
|------------------|-------------------|-------------|-----------------|
|------------------|-------------------|-------------|-------------9-9-|
|------------------|-------------------|-------------|-------------9-9-|
|------------------|-------------------|-------------|-------------7-7-|


  E  E E  Q    Q   E   E E  E E  E E  Q
|--------------------|--------------------|
|--------14---12-----|-----10---12---10---|
|-9s11-------------9-|-9-9----9----9------|
|------9-------------|--------------------|
|--------------------|--------------------|
|--------------------|--------------------|
|
| Gtr II
| E  E q    Q    Q     E Q    Q    Q    E
|--------------------|--------------------|
|--------------------|--------------------|
|--------------------|--------------------|
|-9--9-9----9----9---|-7-7----9----7----9-|
|-9--9-9----9----9---|-7-7----7----7----9-|
|-7--7-7----7----7---|-5-5----5----5----7-|


  E  E E  Q    Q   E   E E  E E  E E  Q
|--------------------|--------------------|
|--------14---12-----|-----10---12---10---|
|-9s11-------------9-|-9-9----9----9------|
|------9-------------|--------------------|
|--------------------|--------------------|
|--------------------|--------------------|
|
| E  E q    Q    Q     E Q    Q    Q    E
|--------------------|--------------------|
|--------------------|--------------------|
|--------------------|--------------------|
|-9--9-9----9----9---|-7-7----9----7----9-|
|-9--9-9----9----9---|-7-7----7----7----9-|
|-7--7-7----7----7---|-5-5----5----5----7-|


  E  E E  Q    Q   E   E E  E E  E E  Q     Q   Q  Q  Q    Q    Q   Q    Q
|--------------------|--------------------|--------7-----|----------7------|
|--------14---12-----|-----10---12---10---|-----9-----9--|-----10-------10-|
|-9s11-------------9-|-9-9----9----9------|-9------------|-9---------------|
|-----9-------------|--------------------|--------------|------------------|
|--------------------|--------------------|--------------|-----------------|
|--------------------|--------------------|--------------|-----------------|
|
| E  E q    Q    Q     E Q    Q    Q    E   E E q  Q  Q    E Q    Q   Q    E
|--------------------|--------------------|--------------|-----------------|
|--------------------|--------------------|--------------|-----------------|
|--------------------|--------------------|--------------|-----------------|
|-9--9-9----9----9---|-7-7----9----7----9-|-9-9-9--9--9--|-7-7---9---7---9-|
|-9--9-9----9----9---|-7-7----7----7----9-|-9-9-9--9--9--|-7-7---7---7---9-|
|-7--7-7----7----7---|-5-5----5----5----7-|-7-7-7--7--7--|-5-5---5---5---7-|
            
Submit corrections

comments powered by Disqus
↑ Back to top | Wildhearts Tabs for Top Of The World. Lyrics for acoustic guitar and electric guitar. Tablatures and chords are parodies/interpretations of the original songs. You may use it for private study, scholarship, research or language learning purposes only