» » »

Wildhearts, Soundog Babylon Tabs (ver.1)

Artists:  A B C D E F G H I J K L M N O P Q R S T U V W X Y Z # 

Soundog Babylon Tabs (ver.1)

Wildhearts Tabs
Rating:
0/5 (0 votes)
Soundog Babylon lessons Tabs too difficult? Try these video lessons and learn fast
                Band: The Wildhearts
Tuning: Eb


eb|---------------------------------------------------------------------------------------------------------------------------------|
Bb|---------------------------------------------------------------------------------------------------------------------------------|
Gb|---------------------------------------------------------------------------------------------------------------------------------|
Db|---------------------------------------------------------------------------------------------------------------------------------|
Ab|--2------2------2-----2-----2----2---2---2--2--2--2--2--2--2--2--2--2--2--2--2--2--2-2-2-2-2-2-2-2-2-2-2-2-2-2-2-2-2-2-2-2-2-2---|
Eb|--0------0------0-----0-----0----0---0---0--0--0--0--0--0--0--0--0--0--0--0--0--0--0-0-0-0-0-0-0-0-0-0-0-0-0-0-0-0-0-0-0-0-0-0---|


eb|------------------------------------------------------------------------------------------------|
Bb|------------------------------------------------------------------------------------------------|
Gb|------------------------------------------------------------------------------------------------|
Db|------------------------------------------------------------------------------------------------|
Ab|--2-2----2-2----2-2----2-2----2-2----2-2----2-2----2-2----2-2----2-2----2-2----2-2----2-2----2--|
Eb|--0-0----0-0----0-0----0-0----0-0----0-0----0-0----0-0----0-0----0-0----0-0----0-0----0-0----0--|


eb|-------------------------------------|
Bb|-------------------------------------|
Gb|-------------------------------------| X4
Db|-------------------------------------|
Ab|--9-8-----7-5-----9-8-----7--5--2----|
Eb|--7-6-0---5-3-0---7-6-0---5--3--0----|


eb|---------------------------|
Bb|---------------------------|
Gb|---------------------------|
Db|----------7-7--------------|
Ab|--2--2----5-5-----5--5-----|
Eb|--0--0------------3--3-----|


   (Something got me...)
eb|--------------------------------------------------|
Bb|--------------------------------------------------|
Gb|--4----4----4----4--4----4----4----4----4--4------| x2
Db|--2----2----2----2--2----2----2----2----2--2------|
Ab|--2----2----2----2--2----2----2----2----2--2------|
Eb|--0----0----0----0--0----0----0----0----0--0------|


   (Something got me talking ...)
eb|------------------------|
Bb|------------------------|
Gb|-------5---------5------|
Db|--5----5----5----5------|
Ab|--5---------5-----------|
Eb|--3---------3-----------|


   (Something got me talking...)
eb|--------------------------------------------------|
Bb|--------------------------------------------------|
Gb|--4----4----4----4--4----4----4----4----4--4------| x2
Db|--2----2----2----2--2----2----2----2----2--2------|
Ab|--2----2----2----2--2----2----2----2----2--2------|
Eb|--0----0----0----0--0----0----0----0----0--0------|


   (Honey you'd be mad to...)
eb|------------------------------------------------------------------------------|
Bb|------------------------------------------------------------------------------|
Gb|--4--------3--------------------------4--------3------------------------------|
Db|--4--------4--------7--------6--------4--------4--------2--------4--------5---|
Ab|--2--------1--------7--------7--------2--------1--------2--------4--------5---|
Eb|--------------------5--------4--------------------------0--------2--------3---|


   (Soundog Babylon...)
eb|-------------------------------------|
Bb|-------------------------------------|
Gb|-------------------------------------| X4
Db|-------------------------------------|
Ab|--9-8-----7-5-----9-8-----7--5--2----|
Eb|--7-6-0---5-3-0---7-6-0---5--3--0----|


   (Something got me asking ...)
eb|--------------------------------------------------|
Bb|--------------------------------------------------|
Gb|--4----4----4----4--4----4----4----4----4--4------| x2
Db|--2----2----2----2--2----2----2----2----2--2------|
Ab|--2----2----2----2--2----2----2----2----2--2------|
Eb|--0----0----0----0--0----0----0----0----0--0------|


   (Something got me talking...)
eb|------------------------|
Bb|------------------------|
Gb|-------5---------5------|
Db|--5----5----5----5------|
Ab|--5---------5-----------|
Eb|--3---------3-----------|


   (Something got me talking...)
eb|--------------------------------------------------|
Bb|--------------------------------------------------|
Gb|--4----4----4----4--4----4----4----4----4--4------| x2
Db|--2----2----2----2--2----2----2----2----2--2------|
Ab|--2----2----2----2--2----2----2----2----2--2------|
Eb|--0----0----0----0--0----0----0----0----0--0------|


   ((Honey you'd be mad to...) )
eb|------------------------------------------------------------------------------|
Bb|------------------------------------------------------------------------------|
Gb|--4--------3--------------------------4--------3------------------------------|
Db|--4--------4--------7--------6--------4--------4--------2--------4--------5---|
Ab|--2--------1--------7--------7--------2--------1--------2--------4--------5---|
Eb|--------------------5--------4--------------------------0--------2--------3---|


   (Soundog Babylon...)
eb|-------------------------------------|
Bb|-------------------------------------|
Gb|-------------------------------------| X4
Db|-------------------------------------|
Ab|--9-8-----7-5-----9-8-----7--5--2----|
Eb|--7-6-0---5-3-0---7-6-0---5--3--0----|


eb|---------------------------|
Bb|---------------------------|
Gb|---------------------------|
Db|----------7-7--------------|
Ab|--2--2----5-5-----5--5-----|
Eb|--0--0------------3--3-----|


eb|-----------------------------------------------------------------------------------------------------|
Bb|-----------------------------------------------------------------------------------------------------|
Gb|-----------------------------------------------------------------------------------------------------|
Db|-----------------------------------------------------------------------------------------------------|
Ab|-------------------------------------------------------------------2-2-2-2-2-2-2-2-2-2-2-2-2-2-2-2---|
Eb|--0-0-0-0-0-0-0-0-0-0-0-0-0-0-0-0-3-3-3-3-3-3-3-3-3-3-3-3-3-3-3-3------------------------------------|


eb|---------------------------------------------------------------------------------------------------|
Bb|---------------------------------------------------------------------------------------------------|
Gb|---------------------------------------------------------------------------------------------------|
Db|---------------------------------------------------------------------------------------------------|
Ab|--1-1-1-1-1-1-1-1-1-1-1-1-1-1-1-1---------------------------------0-0-0-0-0-0-0-0-0-0-0-0-0-0-0-0--|
Eb|----------------------------------2-2-2-2-2-2-2-2-2-2-2-2-2-2-2-2----------------------------------|


eb|-----------------------------------------------------------------------------------------------------|
Bb|-----------------------------------------------------------------------------------------------------|
Gb|-----------------------------------------------------------------------------------------------------|
Db|-----------------------------------------------------------------------------------------------------|
Ab|-------------------------------------------------------------------2-2-2-2-2-2-2-2-2-2-2-2-2-2-2-2---|
Eb|--0-0-0-0-0-0-0-0-0-0-0-0-0-0-0-0-3-3-3-3-3-3-3-3-3-3-3-3-3-3-3-3------------------------------------|


eb|----------------------------------------|
Bb|----------------------------------------|
Gb|----------------------------------------|
Db|----------------------------------------|
Ab|--1-1-1-1-1-1-1-1-1-1-1-1-1-1-1-1-------|
Eb|----------------------------------------|


(Bass solo)

   (Soundog Babylon...)
eb|-------------------------------------|
Bb|-------------------------------------|
Gb|-------------------------------------| X8
Db|-------------------------------------|
Ab|--9-8-----7-5-----9-8-----7--5--2----|
Eb|--7-6-0---5-3-0---7-6-0---5--3--0----|


eb|-----------------------------------------------------------------------------|
Bb|-----------------------------------------------------------------------------|
Gb|-----------------------------------------------------------------------------|
Db|-----------------------------------------------------------------------------|
Ab|--9--9--9--9--9--8--7--6--5---5---5-7-7-4-5---5---5-7-7-4-5---5---5-7-7-4----|
Eb|--7--7--7--7--7--6--5--4--3---3---3-5-5-2-3---3---3-5-5-2-3---3---3-5-5-2----|


eb|---------------------------------------------------------------------------------------------------|
Bb|---------------------------------------------------------------------------------------------------|
Gb|---------------------------------------------------------------------------------------------------|
Db|---------------------------------------------------------------------------------------------------|
Ab|--9---9---9---9---9---8--7--6--5----5----5--7--7--4--5----5----5--7--7--4--5----5----5--7--7--4----|
Eb|--7---7---7---7---7---6--5--4--3----3----3--5--5--2--3----3----3--5--5--2--3----3----3--5--5--2----|


eb|------------------------------------------------------------|
Bb|------------------------------------------------------------|
Gb|------------------------------------------------------------|
Db|------------------------------------------------------------|
Ab|--9----9----9----9----9----8----7----6----5----5-----5------|
Eb|--7----7----7----7----7----6----5----4----3----3-----3------|
            

comments powered by Disqus
↑ Back to top | Wildhearts Tabs for Soundog Babylon. Lyrics for acoustic guitar and electric guitar. Tablatures and chords are parodies/interpretations of the original songs. You may use it for private study, scholarship, research or language learning purposes only