» » »

Wildhearts, Someone That Wont Let Me Go Tabs (ver.1)

Artists:  A B C D E F G H I J K L M N O P Q R S T U V W X Y Z # 

Someone That Wont Let Me Go Tabs (ver.1)

Wildhearts Tabs
 Rating:
4.2/5 (5 votes)
Someone That Wont Let Me Go lessons Tabs too difficult? Try these video lessons and learn fast
1
                Band: The Wildhearts
Tuning: Eb


   Intro:
eb|---------------------------------------------------------------------|
Bb|---------------------------------------------------------------------|
Gb|--7-7-7-6-6-6-4-4----------------------------------------------------| x2
Db|--0-0-0-0-0-0-0-0-7-7-7-6-6-6-4-4------------------------------------|
Ab|------------------0-0-0-0-0-0-0-0-7-7-7-5-5-5-4-4-4-4-4-2-2-2-0-0----|
Eb|----------------------------------0-0-0-0-0-0-0-0-2-2-2-2-2-2-2-2----|


eb|---------------------------------------------------------------------|
Bb|---------------------------------------------------------------------|
Gb|--7-7-7-6-6-6-4-4----------------------------------------------------|
Db|--0-0-0-0-0-0-0-0-7-7-7-6-6-6-4-4------------------------------------|
Ab|------------------0-0-0-0-0-0-0-0-7-7-7-5-5-5-4-4-4-4-4-2-2-2-0-0----|
Eb|----------------------------------0-0-0-0-0-0-0-0-2-2-2-2-2-2-2-2----|
  |                                                                     |
  |                                                                     |
eb|---------------------------------------------------------------------|
Bb|---------------------------------------------------------------------|
Gb|---------------------------------------------------------------------|
Db|--7-7-7-7-7-7-7-7----------------------------------------------------|
Ab|--5-5-5-5-5-5-5-5-7-7-7-7-7-7-7-7-2-2-2-2-2-2-2-2-4-4-4-4-4-4-4-4----|
Eb|------------------5-5-5-5-5-5-5-5-0-0-0-0-0-0-0-0-2-2-2-2-2-2-2-2----|


eb|---------------------------------------------------------------------|
Bb|-------------------------------------------10--10-10-9---------------|
Gb|--7-7-7-6-6-6-4-4-----------------9--------9---9--9--9---------------|
Db|--0-0-0-0-0-0-0-0-7-7-7-6-6-6-4-4-9----------------------------------|
Ab|------------------0-0-0-0-0-0-0-0-7----------------------------------|
Eb|---------------------------------------------------------------------|
  |                                                                     |
  |                                                                     |
eb|---------------------------------------------------------------------|
Bb|---------------------------------------------------------------------|
Gb|---------------------------------------------------------------------|
Db|--7-7-7-7-7-7-7-7-------------------9-----9-----9-----9--------------|
Ab|--5-5-5-5-5-5-5-5-7-7-7-7-7-7-7-7-2-7-2-2-7-2-2-7-2-2-7--------------|
Eb|------------------5-5-5-5-5-5-5-5-0---0-0---0-0---0-0----------------|


   Verse: (A day stuck in my memory...)
eb|-----------------------------------------------------------------------|
Bb|-----------------------------------------------------------------7-----|
Gb|---------------------------------------------------------------9---9---|
Db|--2-2-2-2-2-2-2-2--4-4-4-4-4-4-4-4-------------------7-7-7-7-7---------|
Ab|--0-0-0-0-0-0-0-0--2-2-2-2-2-2-2-2--5-5-5-5-5-5-5-5--5-5-5-5-5---------|
Eb|------------------------------------3-3-3-3-3-3-3-3--------------------|
  |                                                                       | x2
  |                                                                       |
eb|-----------------------------------------------------------------------|
Bb|-----------------------------------------------------------------------|
Gb|-----------------------------------------------------------------------|
Db|--2-2-2-2-2-2-2-2--4-4-4-4-4-4-4-4-------------------7-7-7-7-7-7-7-7---|
Ab|--0-0-0-0-0-0-0-0--2-2-2-2-2-2-2-2--5-5-5-5-5-5-5-5--5-5-5-5-5-5-5-5---|
Eb|------------------------------------3-3-3-3-3-3-3-3--------------------|


   (I ain't too crazy about Elvis...)
eb|-----------------------------------------------------------------------|
Bb|--0-0-0-0-0-0-0-0--0-0-0-0-0-0-0-0-------------------------------------|
Gb|--2-2-2-2-2-2-2-2--4-4-4-4-4-4-4-4--4-4-4-4-4-4-4-4--7-7-7-7-7-7-7-7---| x2
Db|--2-2-2-2-2-2-2-2--4-4-4-4-4-4-4-4--5-5-5-5-5-5-5-5--7-7-7-7-7-7-7-7---|
Ab|--0-0-0-0-0-0-0-0--2-2-2-2-2-2-2-2--5-5-5-5-5-5-5-5--5-5-5-5-5-5-5-5---|
Eb|------------------------------------3-3-3-3-3-3-3-3--------------------|


   Chorus: (All of my life...)
eb|---------------------------------------------------------------------|
Bb|---------------------------------------------------------------------|
Gb|--7-7--7--7--7-7-----------------------------------------------------|
Db|--7-7--7--7--7-7--7-7--7--7--7-7--2-2--2--2--2-2--4-4-4-4--2-2-2-2---|
Ab|--5-5--5--5--5-5--7-7--7--7--7-7--2-2--2--2--2-2--4-4-4-4--2-2-2-2---|
Eb|------------------5-5--5--5--5-5--0-0--0--0--0-0--2-2-2-2--0-0-0-0---|

   (and all of my life...)
eb|---------------------------------------------------------------------|
Bb|---------------------------------------------------------------------|
Gb|--7-7--7--7--7-7----------------------------------------7------------|
Db|--7-7--7--7--7-7--7-7--7--7--7-7--2-2--2--2--2-2--4--2--7--2---------|
Ab|--5-5--5--5--5-5--7-7--7--7--7-7--2-2--2--2--2-2--4--2--5--2---------|
Eb|------------------5-5--5--5--5-5--0-0--0--0--0-0--2--0-----0---------|


   (someone that won't let me go....)
eb|---------------------------------------------------------------------|
Bb|---------------------------------------------------------------------|
Gb|--7-7-7-6-6-6-4-4----------------------------------------------------|
Db|--0-0-0-0-0-0-0-0-7-7-7-6-6-6-4-4------------------------------------|
Ab|------------------0-0-0-0-0-0-0-0-7-7-7-5-5-5-4-4-4-4-4-2-2-2-0-0----|
Eb|----------------------------------0-0-0-0-0-0-0-0-2-2-2-2-2-2-2-2----|
  |                                                                     |
  |                                                                     |
eb|---------------------------------------------------------------------|
Bb|---------------------------------------------------------------------|
Gb|---------------------------------------------------------------------|
Db|--7-7-7-7-7-7-7-7----------------------------------------------------|
Ab|--5-5-5-5-5-5-5-5-7-7-7-7-7-7-7-7-2-2-2-2-2-2-2-2-4-4-4-4-4-4-4-4----|
Eb|------------------5-5-5-5-5-5-5-5-0-0-0-0-0-0-0-0-2-2-2-2-2-2-2-2----|

eb|---------------------------------------------------------------------|
Bb|-------------------------------------------10--10-10-9---------------|
Gb|--7-7-7-6-6-6-4-4-----------------9--------9---9--9--9---------------|
Db|--0-0-0-0-0-0-0-0-7-7-7-6-6-6-4-4-9----------------------------------|
Ab|------------------0-0-0-0-0-0-0-0-7----------------------------------|
Eb|---------------------------------------------------------------------|
  |                                                                     |
  |                                                                     |
eb|---------------------------------------------------------------------|
Bb|---------------------------------------------------------------------|
Gb|---------------------------------------------------------------------|
Db|--7-7-7-7-7-7-7-7-------------------9-----9-----9-----9--------------|
Ab|--5-5-5-5-5-5-5-5-7-7-7-7-7-7-7-7-2-7-2-2-7-2-2-7-2-2-7--------------|
Eb|------------------5-5-5-5-5-5-5-5-0---0-0---0-0---0-0----------------|


   Verse: (I sit back and imagine...)
eb|-----------------------------------------------------------------------|
Bb|-----------------------------------------------------------------7-----|
Gb|---------------------------------------------------------------9---9---|
Db|--2-2-2-2-2-2-2-2--4-4-4-4-4-4-4-4-------------------7-7-7-7-7---------|
Ab|--0-0-0-0-0-0-0-0--2-2-2-2-2-2-2-2--5-5-5-5-5-5-5-5--5-5-5-5-5---------|
Eb|------------------------------------3-3-3-3-3-3-3-3--------------------|
  |                                                                       | x2
  |                                                                       |
eb|-----------------------------------------------------------------------|
Bb|-----------------------------------------------------------------------|
Gb|-----------------------------------------------------------------------|
Db|--2-2-2-2-2-2-2-2--4-4-4-4-4-4-4-4-------------------7-7-7-7-7-7-7-7---|
Ab|--0-0-0-0-0-0-0-0--2-2-2-2-2-2-2-2--5-5-5-5-5-5-5-5--5-5-5-5-5-5-5-5---|
Eb|------------------------------------3-3-3-3-3-3-3-3--------------------|


   (Is she feeling this lonely...)
eb|-----------------------------------------------------------------------|
Bb|--0-0-0-0-0-0-0-0--0-0-0-0-0-0-0-0-------------------------------------|
Gb|--2-2-2-2-2-2-2-2--4-4-4-4-4-4-4-4--4-4-4-4-4-4-4-4--7-7-7-7-7-7-7-7---| x2
Db|--2-2-2-2-2-2-2-2--4-4-4-4-4-4-4-4--5-5-5-5-5-5-5-5--7-7-7-7-7-7-7-7---|
Ab|--0-0-0-0-0-0-0-0--2-2-2-2-2-2-2-2--5-5-5-5-5-5-5-5--5-5-5-5-5-5-5-5---|
Eb|------------------------------------3-3-3-3-3-3-3-3--------------------|


   Chorus: (All of my life...)
eb|---------------------------------------------------------------------|
Bb|---------------------------------------------------------------------|
Gb|--7-7--7--7--7-7-----------------------------------------------------|
Db|--7-7--7--7--7-7--7-7--7--7--7-7--2-2--2--2--2-2--4-4-4-4--2-2-2-2---|
Ab|--5-5--5--5--5-5--7-7--7--7--7-7--2-2--2--2--2-2--4-4-4-4--2-2-2-2---|
Eb|------------------5-5--5--5--5-5--0-0--0--0--0-0--2-2-2-2--0-0-0-0---|

   (and all of my life...)
eb|-------------------------------------------------------------------------------|
Bb|-------------------------------------------------------------------------------|
Gb|--7-7--7--7--7-7---------------------------------------------------------------|
Db|--7-7--7--7--7-7--7-7--7--7--7-7--2-2--2--2--2-2--4--4-4-4-4-4--7--7-7-7-7-7-7-|
Ab|--5-5--5--5--5-5--7-7--7--7--7-7--2-2--2--2--2-2--2--2-2-2-2-2--5--5-5-5-5-5-5-|
Eb|------------------5-5--5--5--5-5--0-0--0--0--0-0-------------------------------|

----------------------------------|
----------------------------------|
----------------------------------|
-2--2-2-2-2-2-2-------------------|
-0--0-0-0-0-0-0--2--2-2-2-2-2-2---|
-----------------0--0-0-0-0-0-0---|


   Bridge: (Gonna make me think I'm cool...)
eb|----------------------------------------------------------------|
Bb|----------------------------------------------------------------|
Gb|----------------------------------------------------------------|
Db|--7-7--7--7--7-------------------7-7--7--7--7-------------------|
Ab|--5-5--5--5--5-7-7-7-7-7-7-7-7---5-5--5--5--5-7-7-7-7-7-7-7-7---|
Eb|---------------5-5-5-5-5-5-5-5----------------5-5-5-5-5-5-5-5---|


   (Gonna make me feel I truly...)
eb|-----------------------------------------------------------------------|
Bb|-----------------------------------------------------------------------|
Gb|-----------------------------------------------------------------------|
Db|--4-4-4-4-4-4-4-4-------------------7-7-7-7-7-7-7-7--9-9-9-9-9-9-9-9---|
Ab|--2-2-2-2-2-2-2-2--4-4-4-4-4-4-4-4--5-5-5-5-5-5-5-5--7-7-7-7-7-7-7-7---|
Eb|-------------------2-2-2-2-2-2-2-2-------------------------------------|


   Verse: (A day stuck in my memory...)
eb|-----------------------------------------------------------------------|
Bb|-----------------------------------------------------------------------|
Gb|-----------------------------------------------------------------------|
Db|--2-2-2-2-2-2-2-2--4-4-4-4-4-4-4-4-------------------7-7-7-7-7-7-7-7---|
Ab|--0-0-0-0-0-0-0-0--2-2-2-2-2-2-2-2--5-5-5-5-5-5-5-5--5-5-5-5-5-5-5-5---|
Eb|------------------------------------3-3-3-3-3-3-3-3--------------------|

   (I need somebody friendly...)
eb|---------------------------------------------------------------------------------------|
Bb|---------------------------------------------------------------------------------------|
Gb|---------------------------------------------------------------------------------------|
Db|--2-2-2-2-2-2-2-2--4-4-4-4-4-4-4-4-------------------7-7-7-7-7-7-7-7-7-7-7-7-7-7-7-7---|
Ab|--0-0-0-0-0-0-0-0--2-2-2-2-2-2-2-2--5-5-5-5-5-5-5-5--5-5-5-5-5-5-5-5-5-5-5-5-5-5-5-5---|
Eb|------------------------------------3-3-3-3-3-3-3-3------------------------------------|


  Chorus: (All of my life...)
eb|---------------------------------------------------------------------|
Bb|---------------------------------------------------------------------|
Gb|--7-7--7--7--7-7-----------------------------------------------------| x3
Db|--7-7--7--7--7-7--7-7--7--7--7-7--2-2--2--2--2-2--4-4-4-4--2-2-2-2---|
Ab|--5-5--5--5--5-5--7-7--7--7--7-7--2-2--2--2--2-2--4-4-4-4--2-2-2-2---|
Eb|------------------5-5--5--5--5-5--0-0--0--0--0-0--2-2-2-2--0-0-0-0---|


   (and all of my life...)
eb|---------------------------------------------------------------------------|
Bb|---------------------------------------------------------------------------|
Gb|--7-7--7--7--7-7----------------------------------------7-----------7------|
Db|--7-7--7--7--7-7--7-7--7--7--7-7--2-2--2--2--2-2--4--2--7--2--4--2--7--2---|
Ab|--5-5--5--5--5-5--7-7--7--7--7-7--2-2--2--2--2-2--4--2--5--2--4--2--5--2---|
Eb|------------------5-5--5--5--5-5--0-0--0--0--0-0--2--0-----0--2--0-----0---|


   (someone that won't let me go...)
eb|---------------------------------------------------------------|
Bb|---------------------------------------------------------------|
Gb|---------------------------------------------------------------|
Db|--7-7-7-7-7-7-7-7-7-7-7-7-7-7-7-7-7--7-7-7-7-7-7-7-7----7------|
Ab|--7-7-7-7-7-7-7-7-7-7-7-7-7-7-7-7-7--7-7-7-7-7-7-7-7----7------|
Eb|--5-5-5-5-5-5-5-5-5-5-5-5-5-5-5-5-5--5-5-5-5-5-5-5-5----5------|
            
Submit corrections

comments powered by Disqus
↑ Back to top | Wildhearts Tabs for Someone That Wont Let Me Go. Lyrics for acoustic guitar and electric guitar. 1 Tablatures and chords are parodies/interpretations of the original songs. You may use it for private study, scholarship, research or language learning purposes only