» » »

Wildhearts, Revolution Will Be Televised Tabs (ver.1)

Artists:  A B C D E F G H I J K L M N O P Q R S T U V W X Y Z # 

Revolution Will Be Televised Tabs (ver.1)

Wildhearts Tabs
Rating:
4/5 (1 vote)
Revolution Will Be Televised lessons Tabs too difficult? Try these video lessons and learn fast
                Hey Hey people.
Why is it that Wildhearts tableture is some of the most difficult to come across? - And
there be no sarcy remarks questioning the bands quality!
I know that this tab won't be completely, 100% accurate. Songs by The Wildhearts are
a bit a git for trying to work out, not sure why, they just seem to be. Hence why I am
aware that the following tab will not be entirely true to what is played on the record, 
it's better than nothing, and you're more than welcome to point corrections if you see fit!

Enjoy!

Intro - The rhythm of this riff isn't the easiest to tab, so I haven't bothered! I'm
about that! You should be able to get it from the tab and the song together, but if you do
is played with a clean effect, the distorted guitar line is exactly the same.

e-------------------------------------|
B--2-2-22------33--2-2-22-------------|
G--2-2-22------22--2-2-22----------2--|
D--2-2-22------00--2-2-22----------2--|
A--0-0-00----------0-0-00---4h5p4--0--|
E-----------3-------------------------|

This is played twice without distortion, and then twice with distortion. After that the
riff comes in.

Verse

e--0-0-0-0-2-2-------------0-0-0-0--|
B--2-2-2-2-3-3-2-2-2-2-2-2-0-0-2-2--|
G--2-2-2-2-2-2-2-2-2-2-2-2-1-1-2-2--|
D--2-2-2-2-0-0-2-2-2-2-2-2-2-2-2-2--|
A--0-0-0-0-----0-0-0-0-0-0-2-2-0-0--|
E--------------------------0-0------|

e--0-0-0-0-2-2---------3-3-2-2--|
B--2-2-2-2-3-3-2-2-2-2-0-0-3-3--|
G--2-2-2-2-2-2-2-2-2-2-0-0-2-2--|
D--2-2-2-2-0-0-2-2-2-2-0-0-0-0--|
A--0-0-0-0-----0-0-0-0-2-2------|
E----------------------3-3------|

You place this one, then the intro riff twice, and then the verse riff again. After
the verse riff again, you play the intro riff twice again, but you hold onto the A chord
heading into the chorus...

e--0-
B--2-
G--2-
D--2-
A--0-
E----

Hold onto this chord before heading into the chorus part

Chorus

e-----------------|
B-----------------|
G--7--------------|   place this twice
D--7-x4-7----9----|
A--5----7-x4-9-x8-|
E-------5----7----|

Then end the chorus with

e--2-2-2-2-0-0-0-0-2-2-2-2-0-0-0-0-3-3-3-3-2-2-2-2-3-3-3-3-2-2-2-2--|
B--3-3-3-3-2-2-2-2-3-3-3-3-2-2-2-2-0-0-0-0-3-3-3-3-0-0-0-0-3-3-3-3--|
G--2-2-2-2-2-2-2-2-2-2-2-2-2-2-2-2-0-0-0-0-2-2-2-2-0-0-0-0-2-2-2-2--|
D--0-0-0-0-2-2-2-2-0-0-0-0-2-2-2-2-0-0-0-0-0-0-0-0-0-0-0-0-0-0-0-0--|
A----------0-0-0-0---------0-0-0-0-2-2-2-2---------2-2-2-2----------|
E----------------------------------3-3-3-3---------3-3-3-3----------|

Wait for the drum solo, and then you play the intro riff again for two times. Then play
verse riff once, but don't go into the intro riff again. Hold on the A chord and then go
the chorus. After playing the chorus (and after the little drum solo) play the intro 
again, and hold onto the A chord. The ending bit is...


Ending Riff

e---------------------------------------------------------------|
B---------------------------------------------------------------|
G--4-4-4-4-1-1-4-4-4-4-4-4-3-3-4-4-4-4-4-4-1-1-4-4-4----2----1--|
D--4-4-4-4-2-2-4-4-4-4-4-4-4-4-4-4-4-4-4-4-2-2-4-4-4----2----2--|
A--2-2-2-2-2-2-2-2-2-2-2-2-4-4-2-2-2-2-2-2-2-2-2-2-2----0----2--|
E----------0-0-------------2-2-------------0-0---------------0--|

Whatever you want to call the half of a song put on the end, this is it!

e---------------------------------------------|
B---------------------------------------------|
G-4----/8----/9---------7---------9----4------|
D-4-x8-/8-x8-/9-x8-4----7-x8-7----9----4-x8---|
A-2----/6----/7----4-x8-5----7-x8-7-x8-2------|
E------------------2---------5----0-----------|

You play this four times all the way through palm muted. Then twice through without
the strings, and then on the third time with muting, you hold the D, A, E and B chords in
with the song (these are the last four chords of the ending riff).

Well that's as much as I can humanly do. I hope it meets the grade, and I'm sorry if
are mistakes in it. Take care everyone.
            

comments powered by Disqus
↑ Back to top | Wildhearts Tabs for Revolution Will Be Televised. Lyrics for acoustic guitar and electric guitar. Tablatures and chords are parodies/interpretations of the original songs. You may use it for private study, scholarship, research or language learning purposes only