» » »

Pissjoy Tabs (ver.1)

Artists:  A B C D E F G H I J K L M N O P Q R S T U V W X Y Z # 

Pissjoy Tabs (ver.1)

Wildhearts
Rating:
0/5 (0 votes)

Hard to play? Try these video lessons and learn fast.
                Band: The Wildhearts    
Tuning: Eb


eb|-------------------------------------|
Bb|-------------------------------------|
Gb|--7-6-7-6-4--7--6-7-6-4-----4--------| x4
Db|--------------------------6----------|  
Ab|------------------------7------------|
Eb|-------------------------------------|


   (Everybody go...)
eb|--0----------------0----------------0----------------2--------0--------|
Bb|--0----------------0----------------0----------------3--------0--------|
Gb|--1----------------2----------------1----------------2--------2--------| 
Db|--2----------------2----------------2----------------0--------2--------|  
Ab|--2----------------0----------------2-------------------------0--------|
Eb|--0---------------------------------0----------------------------------|


   (You’re giving p**sjoy)
eb|-----------------------------------------------------------|
Bb|-----------------------------------------------------------|
Gb|--7-6-7-6-4--7--6-7-6-4-----4--7-6-7-6-4--7--6-7-6-4-------| 
Db|--------------------------6--------------------------------|  
Ab|------------------------7----------------------------------|
Eb|-----------------------------------------------------------|
  |                                                           |
  |                                                           |
eb|--0--------------------------------------------------------|
Bb|--0--------------------------------------------------------|
Gb|--1--------------------------------------------------------| 
Db|--2--------------------------------------------------------|  
Ab|--2--------------------------------------------------------|
Eb|--0--------------------------------------------------------|


   (I don’t wanna know...)
eb|--0----------------0----------------0----------------2--------0--------|
Bb|--0----------------0----------------0----------------3--------0--------|
Gb|--1----------------2----------------1----------------2--------2--------| 
Db|--2----------------2----------------2----------------0--------2--------|  
Ab|--2----------------0----------------2-------------------------0--------|
Eb|--0---------------------------------0----------------------------------|


   (You’re giving p**sjoy...)
eb|--------------------------------------------------------0----|
Bb|--------------------------------------------------------0----|
Gb|--7-6-7-6-4--7--6-7-6-4-----4--7-6-7-6-4--7--6-7-6-4----2----| 
Db|--------------------------6-----------------------------2----|  
Ab|------------------------7-------------------------------0----|
Eb|-------------------------------------------------------------|
  |                                                             | x2
  |                                                             |
eb|--0-----------------------------------------------------0----|
Bb|--0-----------------------------------------------------0----|
Gb|--1-----------------------------------------------------2----| 
Db|--2-----------------------------------------------------2----|  
Ab|--2-----------------------------------------------------0----|
Eb|--0----------------------------------------------------------|


   (p**sjoy na na....)
eb|-----------------------------------------------------------|
Bb|-----------------------------------------------------------|
Gb|--7-6-7-6-4--7--6-7-6-4-----4--7-6-7-6-4--7--6-7-6-4-------| 
Db|--------------------------6--------------------------------|  
Ab|------------------------7----------------------------------|
Eb|-----------------------------------------------------------|
  |                                                           |
  |                                                           |
eb|--0--------------------------------------------------------|
Bb|--0--------------------------------------------------------|
Gb|--1--------------------------------------------------------| 
Db|--2--------------------------------------------------------|  
Ab|--2--------------------------------------------------------|
Eb|--0--------------------------------------------------------|


   (Everybody knows...)
eb|-------------------0----------------0----------------2--------0--------|
Bb|-------------------0----------------0----------------3--------0--------|
Gb|-------------------2----------------1----------------2--------2--------| 
Db|-------------------2----------------2----------------0--------2--------|  
Ab|-------------------0----------------2-------------------------0--------|
Eb|------------------------------------0----------------------------------|


   (You’re giving p**sjoy...)
eb|--------------------------------------------------------0----|
Bb|--------------------------------------------------------0----|
Gb|--7-6-7-6-4--7--6-7-6-4-----4--7-6-7-6-4--7--6-7-6-4----2----| 
Db|--------------------------6-----------------------------2----|  
Ab|------------------------7-------------------------------0----|
Eb|-------------------------------------------------------------|
  |                                                             | Repeat till fade
  |                                                             |
eb|--0-----------------------------------------------------0----|
Bb|--0-----------------------------------------------------0----|
Gb|--1-----------------------------------------------------2----| 
Db|--2-----------------------------------------------------2----|  
Ab|--2-----------------------------------------------------0----|
Eb|--0----------------------------------------------------------|
            
Hard to play? Try these video lessons and learn fast. | Correct




comments powered by Disqus
↑ Back to top | Tablatures and chords are parodies/interpretations of the original songs. You may use it for private study, scholarship, research or language learning purposes only