» » »

Wildhearts, Nita Nitro Tabs (ver.1)

Artists:  A B C D E F G H I J K L M N O P Q R S T U V W X Y Z # 

Nita Nitro Tabs (ver.1)

Wildhearts Tabs
Rating:
3/5 (2 votes)
Nita Nitro lessons Tabs too difficult? Try these video lessons and learn fast
                Whole song with heavy distortion
(Intro)
--------------------------------------------------------------------|
--------------------------------------------------------------------|
--------------------------------------------------------------------|
-2--2--2--2---2-2-2-2--2-2----2-2-----------------------------------|
-2--2--2--2---2-2-2-2--2-2----2-2-----------------------------------|
-0--0--0--0---0-0-0-0--0-0----0-0-----------------------------------| Cont for ever...
    - Palm mute all of this -


--------------------------------------------------------------------|
--------------------------------------------------------------------|
--------------------------------------------------------------------|
-----------------------9--------------------------------------------|
-9--9--7-6-------6-7/9---9------------------------------------------|
-----------7---7----------------------------------------------------| x3

(MAIN)
--------------------------------------------------------------------|
--------------------------------------------------------------------|
--------------------------------------------------------------------|
-2--2--2--2---2-2-2-2--2-2----2-2---6--6--6--6----------------------|
-2--2--2--2---2-2-2-2--2-2----2-2---6--6--6--6----------------------|
-0--0--0--0---0-0-0-0--0-0----0-0---4--4--4--4----------------------|

Main bit


[E]That Kind of Cold[B] Showers [A]morning noon and [E]night
(cont for rest of lines)


Then...
(Bridge)
--------------------------------------------------------------------|
--------4-7---------------------------------------------------------|
--5--6--------------------------------------------------------------|
--------------------------------------------------------------------|
--------------------------------------------------------------------|
--------------------------------------------------------------------|

(FILL)
I Get to see [A]her face [F]again

That Sweet [E]Nita Nitro[C], She's [F]Locos Tambian   [A]

[INTRO]

Dont[A] Try Rules[B], Coz [A]They Do Not Apply      [B]


(Fill2)

Then... (BRIDGE)

I Get A [A]Messege From A [B]Friend

That Sweet [E]Nita Nitro[C], She's [F]Locos Tambian   [A]


Nita[G] Nitro say [D]goodbye to everything we [C]know


[A]because I dont[D] feel like crying


[A]Although I may [D]start trying


[A]Nita Nitro[F#] say[D] goodbye to all[E] that we have to


[D]Say goodbye to[G] the rock and[A] rolls and welcome to the blues [D]

And[C] you swore you never [D]Go
            

comments powered by Disqus
↑ Back to top | Wildhearts Tabs for Nita Nitro. Lyrics for acoustic guitar and electric guitar. Tablatures and chords are parodies/interpretations of the original songs. You may use it for private study, scholarship, research or language learning purposes only