» » »

Wildhearts, I Wanna Go Where The People Go Tabs (ver.2)

Artists:  A B C D E F G H I J K L M N O P Q R S T U V W X Y Z # 

I Wanna Go Where The People Go Tabs (ver.2)

Wildhearts Tabs
 Rating:
4/5 (4 votes)
I Wanna Go Where The People Go lessons Tabs too difficult? Try these video lessons and learn fast
1
                "I Wanna Go Where The People Go" - Wildhearts, from the album PHUQ
	-written by Ginger




There must be a million different tabs on the OLGA, each saying 
'this is my first tab, so I can't be arsed if there are mistakes'. 
Well, as it happens, this is my first 'proper' tab and I'm gonna
try and be as tight as possible. Well having said that, it looks
like the rhythm aint gonna be too right. Just listen to the song.
Mail me if you think it sucks. (the tab, not the song!!)


Tune down half a step - all strings and notations are relative to
			tuning


INTRO					     p.m................	
E-|----------------------|-------------------|------------------|
B-|----------------------|-------------------|------------------|
G-|--------------6-6-----|-xxx/11-11-11-11---|------------------|
D-|---2--2----2/4-4-4----|-222/11-11-11-11---|-2222222222222222-|
A-|--0--0-0--------------|-222/-9--9--9--9---|-2222222222222222-|
E-|----------------------|-000---------------|-0000000000000000-|

RIFF 1          p.m....               p.m... s				
E-|----------------------|--------------------|-------------------|
B-|----------------------|--------------------|-------------------|
G-|----------------------|--------------------|-------------------|
D-|---x-7-x-----x-x-x-x--|---7-x---9--x-x-x-9\|-4-44-44-x---------|
A-|-7-x-5-0-7---x-x-x-x--|-7-5-x-7-7--x-x-x-7\|-2-22-22-x---44-44-|
E-|-5-x-5-0-5---x-x-x-x--|-5-5-x-5-7--x-x-x-7\|-2-22-22-x-2-22-22-|

          p.m....      (2nd time through)
E-|-------------------|-------------------|
B-|-------------------|-------------------|
G-|-------------------|-------------------|
D-|-7-x-9-x-7-x-x-x-x-|-7-x-9-x-7-7777777-|                                    
A-|-5-x-7-x-7-x-x-x-x-|-5-x-7-x-7-7777777-|
E-|-------x-5-x-x-x-x-|-------x-5-5555555-|

PRE CHORUS
    C	F		   D   G		  E			
E-|-3-3-----3--3--3--3---|-5-5-----5--5--5--5---|-7-7-77--7--7--7--7---|
B-|-3-3-----3--3--3--3---|-5-5-----5--5--5--5---|-7-7-77--7--7--7--7---|
G-|-5-5-----5--5--5--5---|-7-7-----7--7--7--7---|-9-9-99--9--9--9--5---|
D-|-5-5-33--5--5--5--5---|-7-7-55--7--7--7--7---|-9-9-99--9--9--9--5---|
A-|-3-3-33--3--3--3--3---|-5-5-55--5--5--5--5---|-7-7-77--7--7--7--7---|
E-|-3-3-11--3--3--3--3---|-5-5-33--5--5--5--5---|-7-7-77--7--7--7--7---|

     B                     D			   A
E-|-7-7-77--7--7--7--7---|-5-5-55--5--5--5--5---|-5-5-55--5--5--5--5---|
B-|-7-7-77--7--7--7--7---|-5-5-55--5--5--5--5---|-5-5-55--5--5--5--5---|
G-|-8-8-88--8--8--8--8---|-7-7-77--7--7--7--7---|-6-6-66--6--6--6--6---|
D-|-9-9-99--9--9--9--9---|-7-7-77--7--7--7--7---|-7-7-77--7--7--7--7---|
A-|-9-9-99--9--9--9--9---|-5-5-55--5--5--5--5---|-7-7-77--7--7--7--7---|
E-|-7-7-77--7--7--7--7---|-5-5-55--5--5--5--5---|-5-5-55--5--5--5--5---|


CHORUS

I W G W T P G yeah... (I W G W T P G yeah)
E                      A               D

Take me there, anywhere, just as long as there's an atmosphere we'll be round
     A  D       A D           A  D    A  D       A  D A  D              A


POST CHORUS

E-|----------------------|----------------------|
B-|----------------------|----------------------|   
G-|----------------------|----------------------|   
D-|-2-24----7-9-9-10-----|---12-10-9-7-7-7-7-7--|   
A-|-2-22-7-75-7-7--9-----|---10--9-7-5-5-5-5-5--|   
E-|-0----5-7-------------|----------------------|  

I can never be quite sure if this bit's right. That's what it sounds like,
but perhaps it's higher up the fretboard. If you do figure it out, let me know.	
This is also played by a 2nd guitar when the pre chorus hits 'E'


The solo is open to your own interpretation!!!   :)


The lyrics are as follows....

Out of the misery
To wash my soul
Out of the cram with new wave can
And I'm the king of rock and roll
Checkin' my mirror
And I don't mind
Same old cracks in the face and class are
Just a little more defined

So I'm making the distance
I'm born in the business

And me?
In time
Let it shine
Let it shine

Well,
I wanna go where the people go, yeah
I wanna go where the people go, yeah
I wanna go where the people go, yeah
I wanna go where the people go, yeah
Take me there
Anywhere
Just so long as there some atmosphere
We'll be round

C'mon
We all went down

Show me a hero
Of head and heart
Rid of the stars and the blah, blah, blahs
Would be a worthy way to start

Rid of the cliches
That go round and round
I wanna be where the cunts like me
Are buried six feet underground

So if pride is a memory
Is nobody angry?

And me?
In time
Let it shine
Let it shine

Well,
I wanna go where the people go, yeah
I wanna go where the people go, yeah
I wanna go where the people go, yeah
I wanna go where the people go, yeah
Take me there
Anywhere
Just so long as there an atmosphere
We'll be round

C'mon down
We all went down

Well,
I wanna go where the people go, yeah
I wanna go where the people go, yeah
I wanna go where the people go, yeah
I wanna go where the people go, yeah
Take me there
Anywhere
Just so long as there an atmosphere
We'll be round

C'mon down
We all went down

We went down
We went down
We went down
We all went down
We went down
We all went down
            
Submit corrections

comments powered by Disqus
↑ Back to top | Wildhearts Tabs for I Wanna Go Where The People Go. Lyrics for acoustic guitar and electric guitar. 1 Tablatures and chords are parodies/interpretations of the original songs. You may use it for private study, scholarship, research or language learning purposes only