» » »

If Life Is Like A Love Bank Tabs (ver.2)

Artists:  A B C D E F G H I J K L M N O P Q R S T U V W X Y Z # 

If Life Is Like A Love Bank Tabs (ver.2)

Wildhearts
Rating:
0/5 (0 votes)

Hard to play? Try these video lessons and learn fast.
                Band: The Wildhearts    
Tuning: Eb


eb|-----------------------------------------------------------|
Bb|-----------------------------------------------------------|
Gb|-----------------------------------------------------------| x2
Db|----4------3-----4-----3--------4------3-----4-----3-------|  
Ab|--2---3-4--4---2---2-4---4-3--2---3-4--4---2---2-4---4-3---|
Eb|-----------------------------------------------------------|


   (on and on...)
eb|--------------------------------------------------------------------------|
Bb|--------------------------------------------------------------------------|
Gb|--------------------------------------------------------------------------| 
Db|--4--4-4--4-4-4-4--4-4-4-4--4-4-4-4--4-4-4-4--4-4-4-4--4-4-4-4--4-4-4-4---|  
Ab|--4--4-4--4-4-4-4--4-4-4-4--4-4-4-4--4-4-4-4--4-4-4-4--4-4-4-4--4-4-4-4---|
Eb|--2--2-2--2-2-2-2--2-2-2-2--2-2-2-2--2-2-2-2--2-2-2-2--2-2-2-2--2-2-2-2---|


eb|-----------------------------------------------------------|
Bb|-----------------------------------------------------------|
Gb|-----------------------------------------------------------| 
Db|----4------3-----4-----3--------4------3-----4-----3-------|  
Ab|--2---3-4--4---2---2-4---4-3--2---3-4--4---2---2-4---4-3---|
Eb|-----------------------------------------------------------|

   (fists, gists...)
eb|--------------------------------------------------------------------------|
Bb|--------------------------------------------------------------------------|
Gb|--------------------------------------------------------------------------| 
Db|--4--4-4--4-4-4-4--4-4-4-4--4-4-4-4--4-4-4-4--4-4-4-4--4-4-4-4--4-4-4-4---|  
Ab|--4--4-4--4-4-4-4--4-4-4-4--4-4-4-4--4-4-4-4--4-4-4-4--4-4-4-4--4-4-4-4---|
Eb|--2--2-2--2-2-2-2--2-2-2-2--2-2-2-2--2-2-2-2--2-2-2-2--2-2-2-2--2-2-2-2---|


eb|-----------------------------------------------------------|
Bb|-----------------------------------------------------------|
Gb|-----------------------------------------------------------| 
Db|----4------3-----4-----3--------4------3-----4-----3-------|  
Ab|--2---3-4--4---2---2-4---4-3--2---3-4--4---2---2-4---4-3---|
Eb|-----------------------------------------------------------|

   
   (take it awhile...)
eb|-----------------------------------------|
Bb|-----------------------------------------|
Gb|-----------------------------------------| 
Db|--6--6-6--6-6-6-6--6-6-6-6--6-6-6-6--4---|  
Ab|--6--6-6--6-6-6-6--6-6-6-6--6-6-6-6--4---|
Eb|--4--4-4--4-4-4-4--4-4-4-4--4-4-4-4--2---|


eb|-----------------------------------------------------------|
Bb|-----------------------------------------------------------|
Gb|-----------------------------------------------------------| x2
Db|----4------3-----4-----3--------4------3-----4-----3-------|  
Ab|--2---3-4--4---2---2-4---4-3--2---3-4--4---2---2-4---4-3---|
Eb|-----------------------------------------------------------|


   
   (if life...)
eb|--1-------1--------1--------1--------1-------1--------1-------1--------|
Bb|-------2-------2--------2--------2-------2--------2-------2------2-----|
Gb|-----------------------------------------------------------------------| 
Db|-----------------------------------------------------------------------|  
Ab|-----------------------------------------------------------------------|
Eb|-----------------------------------------------------------------------|
  |                                                                       |
  |                                                                       |
eb|-----------------------------------------------------------------------|
Bb|-----------------------------------------------------------------------|
Gb|------------------------------------------------------8--8-8--8-8-8-8--| 
Db|--8--8-8--8-8-8-8--8-8-8-8--8-8-8-8--4--4-4--4-4-4-4--8--8-8--8-8-8-8--|  
Ab|--8--8-8--8-8-8-8--8-8-8-8--8-8-8-8--4--4-4--4-4-4-4--6--6-6--6-6-6-6--|
Eb|--6--6-6--6-6-6-6--6-6-6-6--6-6-6-6--2--2-2--2-2-2-2-------------------|


   (if love is like a love bank...)
eb|-----------------------------------------------------------|
Bb|-----------------------------------------------------------|
Gb|-----------------------------------------------------------| x2
Db|----4------3-----4-----3--------4------3-----4-----3-------|  
Ab|--2---3-4--4---2---2-4---4-3--2---3-4--4---2---2-4---4-3---|
Eb|-----------------------------------------------------------|


eb|---------------------------------------------------------------------|
Bb|---------------------------------------------------------------------|
Gb|---------------------------------------------------------------------| 
Db|--4--4-4--4-4-4-4--4-4-4-4--4-4-4-4--4-4-4-4--4-4-4-4--4-4-4-4--4----|  
Ab|--4--4-4--4-4-4-4--4-4-4-4--4-4-4-4--4-4-4-4--4-4-4-4--4-4-4-4--4----|
Eb|--2--2-2--2-2-2-2--2-2-2-2--2-2-2-2--2-2-2-2--2-2-2-2--2-2-2-2--2----|


eb|-----------------------------------------------------------|
Bb|-----------------------------------------------------------|
Gb|-----------------------------------------------------------| x2
Db|----4------3-----4-----3--------4------3-----4-----3-------|  
Ab|--2---3-4--4---2---2-4---4-3--2---3-4--4---2---2-4---4-3---|
Eb|-----------------------------------------------------------|


   (in, in, invest to...)
eb|--------------------------------------------------------------------------|
Bb|--------------------------------------------------------------------------|
Gb|--------------------------------------------------------------------------| 
Db|--4--4-4--4-4-4-4--4-4-4-4--4-4-4-4--4-4-4-4--4-4-4-4--4-4-4-4--4-4-4-4---|  
Ab|--4--4-4--4-4-4-4--4-4-4-4--4-4-4-4--4-4-4-4--4-4-4-4--4-4-4-4--4-4-4-4---|
Eb|--2--2-2--2-2-2-2--2-2-2-2--2-2-2-2--2-2-2-2--2-2-2-2--2-2-2-2--2-2-2-2---|


eb|-----------------------------------------------------------|
Bb|-----------------------------------------------------------|
Gb|-----------------------------------------------------------| 
Db|----4------3-----4-----3--------4------3-----4-----3-------|  
Ab|--2---3-4--4---2---2-4---4-3--2---3-4--4---2---2-4---4-3---|
Eb|-----------------------------------------------------------|


   (take, take, the whole world...)
eb|--------------------------------------------------------------------------|
Bb|--------------------------------------------------------------------------|
Gb|--------------------------------------------------------------------------| 
Db|--4--4-4--4-4-4-4--4-4-4-4--4-4-4-4--4-4-4-4--4-4-4-4--4-4-4-4--4-4-4-4---|  
Ab|--4--4-4--4-4-4-4--4-4-4-4--4-4-4-4--4-4-4-4--4-4-4-4--4-4-4-4--4-4-4-4---|
Eb|--2--2-2--2-2-2-2--2-2-2-2--2-2-2-2--2-2-2-2--2-2-2-2--2-2-2-2--2-2-2-2---|


eb|-----------------------------------------------------------|
Bb|-----------------------------------------------------------|
Gb|-----------------------------------------------------------| 
Db|----4------3-----4-----3--------4------3-----4-----3-------|  
Ab|--2---3-4--4---2---2-4---4-3--2---3-4--4---2---2-4---4-3---|
Eb|-----------------------------------------------------------|


   (gets to my head...)
eb|-----------------------------------------|
Bb|-----------------------------------------|
Gb|-----------------------------------------| 
Db|--6--6-6--6-6-6-6--6-6-6-6--6-6-6-6--4---|  
Ab|--6--6-6--6-6-6-6--6-6-6-6--6-6-6-6--4---|
Eb|--4--4-4--4-4-4-4--4-4-4-4--4-4-4-4--2---|


eb|-----------------------------------------------------------|
Bb|-----------------------------------------------------------|
Gb|-----------------------------------------------------------| x2
Db|----4------3-----4-----3--------4------3-----4-----3-------|  
Ab|--2---3-4--4---2---2-4---4-3--2---3-4--4---2---2-4---4-3---|
Eb|-----------------------------------------------------------|


  
   (if life)
eb|--1-------1--------1--------1--------1-------1--------1-------1----------|
Bb|-------2-------2--------2--------2-------2--------2-------2------2-------|
Gb|-------------------------------------------------------------------------| 
Db|-------------------------------------------------------------------------|  
Ab|-------------------------------------------------------------------------|
Eb|-------------------------------------------------------------------------|
  |                                                                         |
  |                                                                         |
eb|-------------------------------------------------------------------------|
Bb|-------------------------------------------------------------------------|
Gb|------------------------------------------------------8--8-8--8-8-8-8----| 
Db|--8--8-8--8-8-8-8--8-8-8-8--8-8-8-8--4--4-4--4-4-4-4--8--8-8--8-8-8-8----|  
Ab|--8--8-8--8-8-8-8--8-8-8-8--8-8-8-8--4--4-4--4-4-4-4--6--6-6--6-6-6-6----|
Eb|--6--6-6--6-6-6-6--6-6-6-6--6-6-6-6--2--2-2--2-2-2-2---------------------|



   (if life is like a love bank...)
eb|-----------------------------------------------------------|
Bb|-----------------------------------------------------------|
Gb|-----------------------------------------------------------| x2 
Db|----4------3-----4-----3--------4------3-----4-----3-------|  
Ab|--2---3-4--4---2---2-4---4-3--2---3-4--4---2---2-4---4-3---|
Eb|-----------------------------------------------------------|


eb|--------------------------------------------------------------------------|
Bb|--------------------------------------------------------------------------|
Gb|--------------------------------------------------------------------------| 
Db|--4--4-4--4-4-4-4--4-4-4-4--4-4-4-4--4-4-4-4--4-4-4-4--4-4-4-4--4-4-4-4---|  
Ab|--4--4-4--4-4-4-4--4-4-4-4--4-4-4-4--4-4-4-4--4-4-4-4--4-4-4-4--4-4-4-4---|
Eb|--2--2-2--2-2-2-2--2-2-2-2--2-2-2-2--2-2-2-2--2-2-2-2--2-2-2-2--2-2-2-2---|


eb|-----------------------------------------------------------|
Bb|-----------------------------------------------------------|
Gb|-----------------------------------------------------------| x2
Db|----4------3-----4-----3--------4------3-----4-----3-------|  
Ab|--2---3-4--4---2---2-4---4-3--2---3-4--4---2---2-4---4-3---|
Eb|-----------------------------------------------------------|


   (everyone will take...)
eb|----------------------------------------|
Bb|----------------------------------------|
Gb|----------------------------------------| 
Db|--8--8-8--8-8-8-8--8-8-8-8--8-8-8-8--4--|  
Ab|--8--8-8--8-8-8-8--8-8-8-8--8-8-8-8--4--|
Eb|--6--6-6--6-6-6-6--6-6-6-6--6-6-6-6--2--|



   (if life is like a love bank...)
eb|-----------------------------------------------------------|
Bb|-----------------------------------------------------------|
Gb|-----------------------------------------------------------| x2
Db|----4------3-----4-----3--------4------3-----4-----3-------|  
Ab|--2---3-4--4---2---2-4---4-3--2---3-4--4---2---2-4---4-3---|
Eb|-----------------------------------------------------------|



eb|-------------------------------------------------------------------|
Bb|-------------------------------------------------------------------|
Gb|-------------------------------------------------------------------| 
Db|----4------3-----4-----3--------4------3-----4-----3---------------|  
Ab|--2---3-4--4---2---2-4---4-3--2---3-4--4---2---2-4---4-3-----------|
Eb|-------------------------------------------------------------------|
  |                                                                   |
  |                                                                   |
eb|-------------------------------------------------------------------|
Bb|-------------------------------------------------------------------|
Gb|-------------------------------------------------------------------| 
Db|--4--4-4-4-4-4-4-4-4-4-4-4-4-4-4-4-4-4-4-4-4-4-4-4-4-4-4-4-4-4-4---|  
Ab|--4--4-4-4-4-4-4-4-4-4-4-4-4-4-4-4-4-4-4-4-4-4-4-4-4-4-4-4-4-4-4---|
Eb|--2--2-2-2-2-2-2-2-2-2-2-2-2-2-2-2-2-2-2-2-2-2-2-2-2-2-2-2-2-2-2---|


eb|-----------------------------------------------------------|
Bb|-----------------------------------------------------------|
Gb|-----------------------------------------------------------| 
Db|----4------3-----4-----3--------4------3-----4-----3-------|  
Ab|--2---3-4--4---2---2-4---4-3--2---3-4--4---2---2-4---4-3---|
Eb|-----------------------------------------------------------|


eb|-------------------------------------------------------------------|
Bb|-------------------------------------------------------------------|
Gb|-------------------------------------------------------------------| 
Db|----4------3-----4-----3--------4------3-----4-----3---------------|  
Ab|--2---3-4--4---2---2-4---4-3--2---3-4--4---2---2-4---4-3-----------|
Eb|-------------------------------------------------------------------|
  |                                                                   |
  |                                                                   |
eb|-------------------------------------------------------------------|
Bb|-------------------------------------------------------------------|
Gb|-------------------------------------------------------------------| 
Db|--4--4-4-4-4-4-4-4-4-4-4-4-4-4-4-4-4-4-4-4-4-4-4-4-4-4-4-4-4-4-4---|  
Ab|--4--4-4-4-4-4-4-4-4-4-4-4-4-4-4-4-4-4-4-4-4-4-4-4-4-4-4-4-4-4-4---|
Eb|--2--2-2-2-2-2-2-2-2-2-2-2-2-2-2-2-2-2-2-2-2-2-2-2-2-2-2-2-2-2-2---|



eb|-----------------------------------------------|
Bb|-----------------------------------------------|
Gb|-----------------------------------------------|
Db|----4------3-----4-----3--------4---------3----|  
Ab|--2---3-4--4---2---2-4---4-3--2---3-4--4--4----|
Eb|-----------------------------------------------|
            
Hard to play? Try these video lessons and learn fast. | Correct




comments powered by Disqus
↑ Back to top | Tablatures and chords are parodies/interpretations of the original songs. You may use it for private study, scholarship, research or language learning purposes only