» » »

Wildhearts, Geordie In Wonderland Tabs (ver.1)

Artists:  A B C D E F G H I J K L M N O P Q R S T U V W X Y Z # 

Geordie In Wonderland Tabs (ver.1)

Wildhearts Tabs
Rating:
2/5 (1 vote)
Geordie In Wonderland lessons Tabs too difficult? Try these video lessons and learn fast
                (Intro)
geordie in wonderland

hey, i figured this out about a year ago, its not 100% but it sounds good.

]-10-8-7-------------9---------------------------------------------------------|
]--8-------10-8-7-5--7/9---13-13-12-10-8h10/12-10-10---------------------------|
]------------------------------------------------------------------------------|
]------------------------------------------------------------------------------|
]------------------------------------------------------------------------------|
]------------------------------------------------------------------------- x 2-|

]------------------------------------3-2------2-----|
]--12-10/7-5-7-8-7-3h5p3-3-----5-3-3----------------|
]---------------------------------------------  2---|
]---------------------------------------------------|
]---------------------------------------------------|
]---------------------------------------------------|


comments would be appreciated
            
Submit corrections

comments powered by Disqus
↑ Back to top | Wildhearts Tabs for Geordie In Wonderland. Lyrics for acoustic guitar and electric guitar. Tablatures and chords are parodies/interpretations of the original songs. You may use it for private study, scholarship, research or language learning purposes only