» » »

Play That Funky Music White Boy Tabs (ver.3)

Artists:  A B C D E F G H I J K L M N O P Q R S T U V W X Y Z # 

Play That Funky Music White Boy Tabs (ver.3)

Wild Cherry
Rating:
0/5 (0 votes)

Hard to play? Try these video lessons and learn fast.
                This is an easy song for everyone, even people who never played before. I had to
repeat it twice because it dosnt let you put it in unless its long enough. after
you get the hang of it, it gets a lot easier. This is the main riff.


e|--------------------
B|--------------------
G|--------------------
D|------2-0-2-----0-2-
A|------------0-2-----
E|0--0----------------

e|--------------------
B|--------------------
G|--------------------
D|------2-0-2-----0-2-
A|------------0-2-----
E|0--0----------------
            
Hard to play? Try these video lessons and learn fast. | Correct




comments powered by Disqus
↑ Back to top | Tablatures and chords are parodies/interpretations of the original songs. You may use it for private study, scholarship, research or language learning purposes only