» » »

Wild Cherry, Play That Funky Music Tabs (ver.4)

Artists:  A B C D E F G H I J K L M N O P Q R S T U V W X Y Z # 

Play That Funky Music Tabs (ver.4)

Wild Cherry Tabs
 Rating:
3.4/5 (9 votes)
Play That Funky Music lessons Tabs too difficult? Try these video lessons and learn fast
                Intro
e------------------------------||
B------------------------------||
G------------------------------||
D-------2-0-2-------0^2--------||x2
A--------------0^2-------------||
E--0-0-------------------------||
pre- chorus
e--x--5--------------|
B--x--5--------------|  mute downstroke,
G--x--5--------------|  play upstoke
D--x--4--------------|
A--x--5--------------|
E--x-----------------|
chorus
e----------------------------|
B----------------------------|
G----------------------------|
D-------5-3-5-------3^5------|
A--------------3^5-----------|
E--3-3-----------------------|

solo
e|----------------------------------------15b17-15b17-15b17r15--12h15p12----|
B|--------------------------15b17~r15-12------------------------------------|
G|-----------12h-14-12------------------------------------------------------|
D|--12h-14------------------------------------------------------------------|
A|--------------------------------------------------------------------------|
E|--------------------------------------------------------------------------|

e|-----------12--------15-------15--------15--------------------------------|
B|-15-15b17~----15b17~----15b17-----15b17----15b17-12-----------12-14b------|
G|-----------------------------------------------------14-12----12-14b------|
D|-----------------------------------------------------------14-12-14b------|
A|--------------------------------------------------------------------------|
E|--------------------------------------------------------------------------|

e|-------------15b17r15-12~-17b19-17b19-15~----15------------15-------15----|
B|-15b17r15-12------------------------------15-----17--15h17----15h17-------|
G|--------------------------------------------------------------------------|
D|--------------------------------------------------------------------------|
A|--------------------------------------------------------------------------|
E|--------------------------------------------------------------------------|

e|-------15-15b17-15--------------------------------------------------------|
B|-15h17-------------17-----------------------------------------------------|
G|--------------------------------------------------------------------------|
D|--------------------------------------------------------------------------|
A|--------------------------------------------------------------------------|
E|--------------------------------------------------------------------------|

outro
e-------------------------------------------|
b-------------------------------------------|
g-4--2-----2--------------------------------|
d-------4-----4--3--2--0--2--4--2--0--------|
a-------------------------------------2--0--|
e-------------------------------------------|
            
Submit corrections

comments powered by Disqus
↑ Back to top | Wild Cherry Tabs for Play That Funky Music. Lyrics for acoustic guitar and electric guitar. Tablatures and chords are parodies/interpretations of the original songs. You may use it for private study, scholarship, research or language learning purposes only