» » »

Play That Funky Music Bass tabs (ver.4)

Artists:  A B C D E F G H I J K L M N O P Q R S T U V W X Y Z # 

Play That Funky Music Bass tabs (ver.4)

Wild Cherry
Rating:
3/5 (5 votes)

Hard to play? Try these video lessons and learn fast.
                Bass tab to Play that funky music... by Wild cherry

***__Verse 1-2-3__***

e-----------------------------------------------------------------|
a-----7--7---------------------------7--7-------------------------|repeat 4x
d----------------------7--9-------------------------7--9----------|
g-------------9--7--9---------7--9---------9--7--9--------7--9----|

***__Intro to Chorus__***

e------------------------------------|
a-----7----------------7-------------| repeat this 2x
d------------------------------------|
g--------9--7--9----9-----9--7--9----|

***__Chorus__***


e----------10-------------10----------------|
a-----10-------10----10-------10---8--9--10-| repeat 2x... then...
d-------------------------------------------|
g-------------------------------------------|

e-----------10----------------|
a-----10-------10--11--12--13-|
d-----------------------------|
g-----------------------------|

***__outro of chorus__***

e-----------------------------------------10-----|
a-----------------------------10---10--7------7--|
d---------9----9--7--9--9--7-----7---------------|
g---9---7----7-----------------------------------|
            
Hard to play? Try these video lessons and learn fast. | Correct




comments powered by Disqus
↑ Back to top | Tablatures and chords are parodies/interpretations of the original songs. You may use it for private study, scholarship, research or language learning purposes only