» » »

Widespread Panic, Walk On Tabs (ver.1)

Artists:  A B C D E F G H I J K L M N O P Q R S T U V W X Y Z # 

Walk On Tabs (ver.1)

Widespread Panic Tabs
 Rating:
4.3/5 (6 votes)
Walk On lessons Tabs too difficult? Try these video lessons and learn fast
1
                Here's my take on Mike's part:
|--------------------------------|
|-------------------2------------|
|--------------2-4----4-2--------|
|--------0-2/4------------4-2----|
|--0-2/4----------------------4--|
|--------------------------------|

|--------2---------5---3--------|
|--2-----3---------5---2--------|
|--2-----2-----2-4-6-4-3--------|
|--2-----0-2/4-----7---0-4-2----|
|--0-2/4---------------------4--|
|-------------------------------|

Intro:
   A   A9  D   Amaj7  Dmaj7 D6  D   
|--5---7---2----9---9---9---7---5--|
|--5---5---3----9---9---7---7---7--|
|--6---6---2----9---9---7---7---7--|
|--7---7---0----7---7---0---0---0--|
|--0---0--------0---0--------------|
|----------------------------------|

   A   A9  D   Amaj7  Dmaj7
|--5---7---2----9---9---9--|
|--5---5---3----9---9---7--|
|--6---6---2----9---9---7--|
|--7---7---0----7---7---0--|
|--0---0--------0---0------|
|--------------------------|

Verse 1:
  A         D           A       D
I hear some people been talkin' me down,
A        D        A        D
Bring up my name, pass it 'round.
A          D           A     D
They don't mention the happy times
A       D            A       D
They do their thing, I'll do mine.

Chorus:
A C#m                 C#m F#
     Ooh baby, that's hard to change
A C#m                     C#m F#
     I can't tell them how to feel.
A C#m                 C#m F#
      Some get stoned,    some get strange,
E                        D
  But sooner or later it all gets real.
     A A9 D      Amaj7 Dmaj7 D6 D (as intro)
Walk on,    walk on,
     A A9 D      Amaj7 Dmaj7 (as intro)
Walk on,    walk on,

Fill:
|------------------------|
|------------------------|
|------------------2--4--|  (Play 3 times)
|----------0--2h4--------|
|--0--2h4----------------|
|------------------------|

|--9--7--2----9--9--9--7-----|
|-10--7--3---10-10-10--7--7--|
|--9--7--2----9--9--9--7--7--|
|----------------------------|
|----------------------------|
|----------------------------|

Verse 2:
I remember the good old days,
Stayed up all night gettin' crazed.
Then the money was not so good,
But we still did the best we could.

Chorus:
Ooh baby, that's hard to change
I can't tell them how to feel.
Some get stoned, some get strange,
But sooner or later it all gets real.
Walk on, walk on,
Walk on, walk on.

Repeat fill and fade
            
Submit corrections

comments powered by Disqus
↑ Back to top | Widespread Panic Tabs for Walk On. Lyrics for acoustic guitar and electric guitar. 1 Tablatures and chords are parodies/interpretations of the original songs. You may use it for private study, scholarship, research or language learning purposes only