» » »

Stop And Go Chords (ver.1)

Artists:  A B C D E F G H I J K L M N O P Q R S T U V W X Y Z # 

Stop And Go Chords (ver.1)

Widespread Panic
Rating:
5/5 (2 votes)

Hard to play? Try these video lessons and learn fast.
                Main Theme:
     /  /  /       /        /   /     /     /
|--------------------------|-------------------------|
|--------------------------|-------------------------|
|.-------------------------|-------------------------|
|.-------------------------|-------------------------|
|------------5-4---7-5-4---|----3-2---5-3-2----------|
|---/5--5--5-----5-------5\|3-3-----3-------3-0-2-3--|

    /  /     /       /         /  /  /   /
|---------------------------|------------------|
|---------------------------|------------------|
|---------------------------|-----------------.|
|---------------------------|-----------------.|
|------5-4---7-5-4---5-4----|------------------|
|--/5------5-------5-----5--|--5--3--2-0-2-3---|

Verse 1:
A
  Used to ride the highway
G                                    A  G
  I used to know where I was going
A                     G                               A    G
  Now this shady dirt road is feelin' cool beneath my feet
A
  Used to ride on
   G                                   A  G
To get to where I was going in a day
A
  Now I've got to stop
G
  And go and stop and go along the way

Verse 2:
Was a fool to waste my time
Just searchin' my mind
But the more I find
The more I find the time to search
Used to ride on
To get to where I was going in a daze
And now I've got to stop
And go and stop and go along the way

One time through the Main Theme and then fade.
Mike does the following:
|----------------5-4-3-2-1-0-3-2-1------------|
|------3-2--5-4--------------------2-0-2-2-2--|
|--2-1----------------------------------------| and fade into
|---------------------------------------------| next tune
|---------------------------------------------|
|---------------------------------------------|
            
Hard to play? Try these video lessons and learn fast. | Correct




comments powered by Disqus
↑ Back to top | Tablatures and chords are parodies/interpretations of the original songs. You may use it for private study, scholarship, research or language learning purposes only