» » »

Widespread Panic, Porch Song Bass tabs (ver.1)

Artists:  A B C D E F G H I J K L M N O P Q R S T U V W X Y Z # 

Porch Song Bass tabs (ver.1)

Widespread Panic Tabs
 Rating:
4/5 (4 votes)
Porch Song lessons Tabs too difficult? Try these video lessons and learn fast
1
                Fast Intro: (Sometimes a fill riff precedes this)
G|----------------|-----------------|---------------|-----------------|
D|----------------|-----------------|---------------|-----------------|
A|-----------3----|-----------------|-----------3---|-------2-3-5-3---|
E|-3-0-3-0-3----3-|-3-0-3-0-3--1--3-|-3-0-3-0-3---3-|-0-3-5-----------|

G|----------------------------------|---------------------------------|
D|-----------5/7--0-~3--------------|----------5/7-0~3-5-3------------|
A|----------------------------0--3--|---------------------5-3-5-4-3---|
E|-3-3-3-0-3------------1-0h1------5|-3-3-3-0-3--------------------5-3|

Verse:
G|--------------------------------------------------------------------|
D|-----------5/7--0-~3------------------------------------------------|
A|-----------------------------0-3------------------------------------|
E|-3-3-3-0-3------------1-1-1-----5-----------------------------------|
   "Opened up..."

G|--------------------------------------------------------------------|
D|----------5/7--0-~3-------------------------------------------------|
A|--------------------------------------------------------------------|
E|-3-3-3-0-3------------1-1-0-1-2-3-----------------------------------|

Verse 2: (Repeat x2)
G|-----------------|--------------------------------------------------|
D|-----------------|---------5h7-0-~3-0-------------------------------|
A|-----------5-3/--|--------------------------------------------------|
E|-3-3-3-0-3-----1-|-3-3-0-3-------------1-1--0-1-2-3-----------------|
    "Got no..."

G|-----------------|-----------x5---x7-----x9|---x10--x9---x7---x6----|
D|-----------------|---x5--------------------|------------------------|
A|-3-3-3-3-3-3-3-3-|------s0h3---s5---s0h7---|-s8---s7---s5---s4---3--|
E|-----------------|-s3----------------------|------------------------|
                    "Time to live it up..."

Jam over G and End with the Intro.

Note: For the slow intro/verse, play the root notes for each measure
(G and C), and add some harmonics.
            
Submit corrections

comments powered by Disqus
↑ Back to top | Widespread Panic Bass for Porch Song. Lyrics for acoustic guitar and electric guitar. 1 Tablatures and chords are parodies/interpretations of the original songs. You may use it for private study, scholarship, research or language learning purposes only