» » »

Give Tabs (ver.1)

Artists:  A B C D E F G H I J K L M N O P Q R S T U V W X Y Z # 

Give Tabs (ver.1)

Widespread Panic
Rating:
0/5 (0 votes)

Tabs too difficult? Try these video lessons and learn fast.
                Widespread Panic
Dont Tell The Band

Verse:
e------------------------------------------------------------------------------------
B------------------------------------------------------------------------------------
G------------------------------------------------------------------------------------
D--7--7--7--2--5--6--7----7--7--7----------------------------------------------------
A--7--7--7--2--5--6--7----7--7--7--3--0----------------------------------------------
E--5--5--5--0--3--4--5----5--5--5--------0--3----------------------------------------

Chorus:(Mikey plays lead listen for his part)
e------------------------------------------------------------------------------------
B------------------------------------------------------------------------------------
G-------------5----7-----------------------------------------------------------------
D---7----5----5----7-----------------------------------------------------------------
A---7----5----3----5-----------------------------------------------------------------
E---5----3----x----x-----------------------------------------------------------------

There is a short intro but its not essential but its just the second part of the verse tab.
Thanks 
Mark Salmon
            
Tabs too difficult? Try these video lessons and learn fast.


comments powered by Disqus
↑ Back to top | Tablatures and chords are parodies/interpretations of the original songs. You may use it for private study, scholarship, research or language learning purposes only