» » »

Blight Tabs (ver.1)

Artists:  A B C D E F G H I J K L M N O P Q R S T U V W X Y Z # 

Blight Tabs (ver.1)

Widespread Panic
Rating:
5/5 (2 votes)

Hard to play? Try these video lessons and learn fast.
                
Tuning:Standard

Bass Line:
 
|----------------------------------------|
|-----------------------------777--7-----|
|---5-----5------------5----5--------0---|
|------------6-6---6---------------------|

Main Theme:
|----------------------------------------------------------|
|------8-----11--11--10--8----------8------11--11--10--8---|
|---10---10-----------------10--10-----10------------------|
|----------------------------------------------------------|
|----------------------------------------------------------|
|----------------------------------------------------------|

Verse 1:
Dm    F          Bb      A
   We sat on the couch a-playin
Dm           F          Bb       A
   Touch the tongue and bump the table
Dm           F             Bb      A
   But I was scorned after little ado
G                     A*  Bb    * single note walking up
Tossed right out into the blue

Verse 2:
I set into a downward spiral
Caught an illness that was literally viral
I heard some words of wisdom the other day
And they went in one ear and out the other one

Verse 3:
I awoke from this beatific binge
With prismatic eyes, now lite is tinged
With all the vapors that the vile humans brew
Shining through the.. blight of you (3x)
            
Hard to play? Try these video lessons and learn fast. | Correct




comments powered by Disqus
↑ Back to top | Tablatures and chords are parodies/interpretations of the original songs. You may use it for private study, scholarship, research or language learning purposes only