» » »

Widespread Panic, Action Man Tabs (ver.1)

Artists:  A B C D E F G H I J K L M N O P Q R S T U V W X Y Z # 

Action Man Tabs (ver.1)

Widespread Panic Tabs
 Rating:
4/5 (4 votes)
Action Man lessons Tabs too difficult? Try these video lessons and learn fast
                Widespread Panic 
Dont Tell The Band

Intro: 
Takes too long juss play in D

Verse:
e------------------------------------------------------------------------------------
B------------------------------------------------------------------------------------
G-----9--7--11------------------------------------------these are just chords listen
D--9--9--7--11--9---------------------------------------to song for timing-----------
A--9--7--5--9---9---------------------------------------and repitions.---------------
E--7--x--x--x---7--------------------------------------------------------------------

Chorus:
e------------------------------------------------------------------------------------
B------------------------------------------------------------------------------------
G------------------------------------------------------------------------------------D--9--9--8--7--7--6--5--7--5--4------------------------------------------------------
A--9--9--8--7--7--6--5--7--5--4------------------------------------------------------
E--7--7--6--5--5--4--3--5--3--2------------------------------------------------------

Bridge:
e------------------------------------------------------------------------------------
B------------------------------------------------------------------------------------
G------------------------------------------------------------------------------------
D--7----4----7----4--5----4--5--7----------------------------------------------------
A--7----4----7----4--5----4--5--7----------------------------------------------------
E--5----2----5----2--3----2--3--5----------------------------------------------------

Thats it hope it helps 
Mark Salmon
            
Submit corrections

comments powered by Disqus
↑ Back to top | Widespread Panic Tabs for Action Man. Lyrics for acoustic guitar and electric guitar. Tablatures and chords are parodies/interpretations of the original songs. You may use it for private study, scholarship, research or language learning purposes only