» » »

This Morning Tabs (ver.1)

Artists:  A B C D E F G H I J K L M N O P Q R S T U V W X Y Z # 

This Morning Tabs (ver.1)

Wide Mouth Mason
Rating:
0/5 (0 votes)

Hard to play? Try these video lessons and learn fast.
                

This one is really hard to tab out hopefully you get the
basic idea though

-7---7-----7------------7-----------------------------------------------------|
-7---7-9v--7---9-10-9v--7---9-------------------------------------------------|
-7h8-8-9v--7h8-9-11-9v--7h8-9-7-----------------------------------------------|
--------------------------------9-7h9-----------------------------------------|
------------------------------------------------------------------------------|
------------------------------------------------------------------------------|
 Intro

-7----------------------------------------------------------------------------|
-7---9------------------------------------------------------------------------|
-7h8-9------------------------------------------------------------------------|
-----9------------------------------------------------------------------------|
-----7------------------------------------------------------------------------|
------------------------------------------------------------------------------|
 Verses-Play it as many times as needed There's other things in there too

--4-2------------------------4-2-0-----0---0---------4-2----------------------|
--4-2-4----------------------4-2-0-----0---0---------4-2----------------------|
--4-3-4----------------------4-3-1-2/4---2---1h2p1---4-3----------------------|
--6-4-4------------------x2--6-4-2-----------------2-6-4----------------------|
------2--4/6-7-7-6-4-4h6---------2--------------------------------------------|
---------------------------------0--------------------------------------------|
 Chorus

------------------------------------------------------------------------------|
-10-10-9-9-7---7---9-9--------------------------------------------------------|
-11-11-9-9-7---7---9-9--------------------------------------------------------|
-9--9--9-9-7h8-7h8-9-9--------------------------------------------------------|
------------------------------------------------------------------------------|
------------------------------------------------------------------------------|
 Bridge

-----------------------------7------------------------------------------------|
-10/12-10---------------------------------------------------------------------|
----------9/11-9-7------------------------------------------------------------|
-------------------9-7h9-7h9--------------------------------------------------|
------------------------------------------------------------------------------|
------------------------------------------------------------------------------|
 Solo  This is the basic idea of the solo he hits the notes numerous times
            
Hard to play? Try these video lessons and learn fast. | Correct




comments powered by Disqus
↑ Back to top | Tablatures and chords are parodies/interpretations of the original songs. You may use it for private study, scholarship, research or language learning purposes only