>
 >
Superstition

Superstition Guitar Tabs

Wide Mouth Mason - Superstition chords, tabs, tablatures, lyrics

Guitar lessons | Add/correct | Request | Top 50 tabs Artists:  A B C D E F G H I J K L M N O P Q R S T U V W X Y Z 0-9

Superstition Guitar Tabs – Wide Mouth Mason

CD, Sheet music, Poster

Do you like Superstition? Share with your friends now
Tabs
Song  : Superstition
Genre : Funk Rock

Sidenotes:
Ok this May be a bit sprawly but here it is.
Pretty sure this is exact.
Standard Tuning
Wah Pedal Required

Intro
---------------------------------------------------------------------------------|
---------------------------------------------------------------------------------|
--------------------------------------------------------7b-----------------------|
-5b-5------------------------4---------------------0h5-x----5bp0---------0h5-----|
------7-7p5---5-5-7-5-5--4h5---5p4-5p4---4-5-7--------------------7-7p5----------|
------------7------------------------7-------3b-0---------------------7----------|


-------------------------------------|----------------------------------------|
-------------------------------------|----------------------------------------|
---7b--------------------------------|----------------------------------------|
-x----5b-----------------------------|---------------------5p0-0--------------|
----------7p5p0--0h5-5-5-5-5-7-------|-----5-7p5---7-5h7-----------5-7--------|
---------------3---------------3b-0--|-0-7-------0-------0-------0-----0-5-0--|


------------------------------------------------------------------------------|
------------------------------------------------------------------------------|
------------------------------------------------------------------------------|
-----------0-5-0-0-0-------------5-0-0-00----------------------------------5--|
---0-5-0-7-----------5-7---7-5h7----------4h5-5p4-5p4---4-5-7------5-7p5------|
-7-----------------------0----------------------------7-------3b-0-------7----|


------------------------------------------------------------------------------|
------------------------------------------------------------------------------|
------------------------------------------------------------------------------|
-0-0---------------5p0-00---------------5p0-00----------------5h6-------------|
-----5-7-----0h5h7--------5-7---7-5h7----------5-7--------5-7-----5-0-5-7-----|
---------5-7------------------0-------0------------00-5-7---------------------|


------------------------------------------------------------------------------|
------------------------------------------------------------------------------|
------------------------------------------------------------------------------|
-----------5h6-------------------5h6----------------------5h6-----------------|
-0h7-5h7---------5---5-7-----5-7-------5---5-7----7-5h7---------5---5h7-------|
-0-------0-----0---0-----5-7---------0---0------0-------0-----0---0-----5-7---|


------------------------------------------------------------------------------|
------------------------------------------------------------------------------|
---------------------------------------------------0h7------------------------|
-----5-0-00---------------5-0-00---------------0h5-----5b--------------5h6----|
-5-7--------5-7---7-5-7----------5h7-----5h7--------------7p5-7----5-7--------|
----------------0-------0------------5-7-----0------------------0h7--------0--|


------------------------------------------------------------------------------|
---------------------------5v-------------------------------------------------|
---------------------------7v-------------------------------------------------|
-----------------5h6------------------5h6-------------5h6---------------------|
-5---5-7-----5-7-------5----------5-7-----5-7-----5-7-----5---5-7-------------|
---0-----5-7---------0---0----0h7-------------5-7-----------0-----------------|


------------------------------------------------------------------------------|
------------------------------------------------------------------------------|
------------------------------------------------------------------------------|
-----------5h6-------------------5h6---------------------5h6------------------|
---7-5h7---------5-0h5-7-----5-7-------5-0-5-7---7-5h7---------5-5h7-----5-7--|
-0-------0-----0---------5-7---------0---------0-------0-----0-------5-7------|

Verse 1
----------------|--------------|----------------------------------------------|
----------------|--------------|----------------------------------------------|
----------------|--------------|----------------------------------------------|
-5h6------------|--5b-5--------|-----------5h6-------------------5h6----------|
-------5---5-7--|-------7-7p5--|---7-5h7---------5---5-7-----5-7-----5---7b---|
-----0---0------|-------------7|-0-------0-----0---0-----5-7-----------0------|


------------------------------------------------------------------------------|
------------------------------------------------------------------------------|
------------------------------------------------------------------------------|
----------------------------------0h7-5---------------------------------------|
----7-5h7---------5---5h7---7-5h7-------7---7-5h7---------5---5h7---7-5h7-----|
--0-------0-5h6h7---0-----0---------------0-------0-5h6h7---0-----0-----------|
 Pre Chorus

------------------------------------------------------------------------------|
------------------------------------------------------------------------------|
------------------------------------------------------------------------------|
-0h7-5-----------------------------------0h7-5--------------------------------|
-------7---7-5h7---------5---5h7---7-5h7-------7---7-5h7---------5---5h7---7--|
---------0-------0-5h6h7---0-----0---------------0-------0-5h6h7---0-----0----|


------------------------------------------------------------------------------|
------------------------------------------------------------------------------|
------------------------------------------------------------------------------|
-----0h7-5--------------------------------------------------------------------|
-5h7-------7------------------------------------------------------------------|
------------------------------------------------------------------------------|


-7--8-7--8--5-5-5-5-----------------------------------------------------------|
-7--8-7--8--5-5-5-5---8-8-----------------------------------------------------|
----------------------7-7-----------------------------------------------------|
----------------------6-6-----------------------------------------------------|
----------------------7-7-----------------------------------------------------|
------------------------------------------------------------------------------|

Chorus
-------------------------------------------|----------------------------------|
-------------------------------------------|----------------------------------|
-------------------------------------------|----------------------------------|
-----------5p0-00--------------------------|----------------------------------|
---7-5h7----------4h5-5p4-5p4---4-5-7------|----------------------------------|
-0-------0--------------------7-------3b-0-|-0--------------------------------|
                                             Wah Feedback

------------------------------------------------------------------------------|
---5--5-5--5-5-----5--5-5--5-5----7--7-7--7-7----7--7-7--7-7----5--5-5--5-5---|
---7--7-7--7-7-----7--7-7--7-7----7--7-7--7-7----7--7-7--7-7----7--7-7--7-7---|
---6--6-6--6-6-----6--6-6--6-6----6--6-6--6-6----6--6-6--6-6----6--6-6--6-6---|
---7--7-7--7-7-----7--7-7--7-7----7--7-7--7-7----7--7-7--7-7----7--7-7--7-7---|
-0--------------0---------------0--------------0--------------0---------------|


Verse 2 w/ Wah
--------------------------------------------|---------------------------------|
---5--5-5--5-5----7--7-7--7-7----7--7-7--7-7|---------------------------------|
---7--7-7--7-7----7--7-7--7-7----7--7-7--7-7|---------------------------------|
---6--6-6--6-6----6--6-6--6-6----6--6-6--6-6|---------------------------------|
---7--7-7--7-7----7--7-7--7-7----7--7-7--7-7|---------------------------------|
-0--------------0--------------0------------|---------------------------------|
                                             Back To Pre Chorus Then Chorus

--------------------------------------------------------|---------------------|
---5--5-5--5----5--5-5--5-------------------------------|-7--7-7-7------7--7--|
---7--7-7--7----7--7-7--7-----7----7----7----7----7----7|-7--7-7-7---7--7--7--|
---6--6-6--6----6--6-6--6--6--6--6-6--6-6--6-6--7-6--7-6|-6--6-6-6---6--6--6--|
---7--7-7--7----7--7-7--7--7-----7----7----7----6----6--|-7--7-7-7---7--7--7--|
-0------------0------------0-----0----0----0----0----0--|------------0--------|


--------------------|---------------------------------------------------------|
-7-7-7---7-7-7-7---5|---------------------------------------------------------|
-7-7-7---7-7-7-7---7|-----------4-------------------4-------------------4-----|
-6-6-6---6-6-6-6---6|-----0h5-7---7-----------0h5-7---7-----------0h5-7---7---|
-7-7-7---7-7-7-7---7|-0h7-----------0h4-5-6-7-----------0h4-5-6-7-------------|
--------------------|---------------------------------------------------------|
                      I Wish

------------------------------|-----------------------------------------------|
------------------------------|-----------------------------------------------|
-----------------4------------|-------------0h4-------------------------------|
-----------0h5-7---5---5----x2|-----0h5-0h7-----0h7-----------------0h5-0h7---|
-0h4-5-6-7-----------4---5----|-0h7-----------------0h4-0h5-0h6-0h7-----------|
------------------------------|-----------------------------------------------|


------------------------------------------------------------------------------|
------------------------------------------------------------------------------|
-0h4-----------------------------0h4-----------------------------0h4----------|
-----0h7-----------------0h5-0h7-----0h7-----------------0h5-0h7-----5---5----|
---------0h4-0h5-0h6-0h7-----------------0h4-0h5-0h6-0h7---------------4---5--|
------------------------------------------------------------------------------|


------------------------------------------------------------------------------|
------------------------------------------------------------------------------|
-------------0h4-----------------------------0h4------------------------7-----|
-----0h5-0h7-----0h7-----------------0h5-0h7-----0h7--------------------6-----|
-0h7-----------------0h4-0h5-0h6-0h7-----------------0h4-0h5-0h6-0h7----7-----|
----------------------------------------------------------------------0---0---|


-------------------0----|---------------------------|----------------|--------|
------------------------|---------------------------|----------------|--------|
-7--7-77---7---7-----7-0|-----------4---------------|-----------7---7|--------|
-6--6-66---6---6--------|-----0h5-7---7-----------x7|-----5-7---6---6|-5---5--|
-7--7-77---7---7--------|-0h7-----------0h4-5-6-7---|-0h7-------7---7|---4----|
---------0---0---0------|---------------------------|---------0---0--|--------|

Verse
--|--------------|--------|---------------------------------------------------|
--|--------------|--------|---------------------------------------------------|
--|--------------|--------|---------------------------------------------4-----|
--|--------------|-5---5--|-----0h5-7-5-7p5-------------------------5-7---7---|
-5|--------------|---4---5|-0h7-------------7-5-7-5h7-7p5---------7-----------|
--|--------------|--------|-------------------------------7-5-5-3-------------|

Back To Verse
------------------------------------------------------------------------------|
---------------------------------------------------------12-12-12-12-12-12-12-|
-------------4-------------------------------------------11-11-11-11-11-11-11-|
---------5-7---5---5----------------------------------5/-12-12-12-12-12-12-12-|
-4-5-6-7---------4---5---7-5h7---------5---5h7--7-5h7-------------------------|
-----------------------0-------0-5h6h7---7----0-------------------------------|


-----------------------------------------7-7-7-7----8-8-8-8----7-7-7-7----5-5-|
-----------------------------------------7-7-7-7----8-8-8-8----7-7-7-7----5-5-|
---------4-------------------4-----------7-7-7-7----8-8-8-8----7-7-7-7----5-5-|
-----5-7---7-----------0h5-7---5---5------------------------------------------|
-0h7---------0h4-5-6-7-----------4---5----------------------------------------|
---------------------------------------7----------8----------7----------5-----|


-5-5--0----------------------------------------9-9-9-9-9-----------------------|
-5-5--0--77777777777777777777777777777777777---9-9-9-9-9-----------------------|
-5-5--0--66666666666666666666666666666666666---8-8-8-8-8-----------------------|
------0----------------------------------------9-9-9-9-9-----------------------|
------0------------------------------------------------------------------------|
------0------------------------------------------------------------------------|





Comments


Popular Wide Mouth Mason tabs & chords
Smile Bass Tabs
Corn Rows Tabs
Lagavulin Tabs
My Imagination Tabs
My Old Self Tabs
Rained Out Parade Tabs
Rust Tabs
Smile Tabs
This Morning Tabs
Why 1 Tabs


Song lyrics



↑ Back to top | Tablatures and chords are parodies/interpretations of the original songs. You may use it for private study, scholarship, research or language learning purposes only
© 2014 AZChords.com Contact us | Privacy policy | DMCA | Add/correct tabs | Request tabs | Top 50 tabs