>
 >
Sister Sally

Sister Sally Guitar Tabs

Wide Mouth Mason - Sister Sally chords, tabs, tablatures, lyrics

Guitar lessons | Add/correct | Request | Top 50 tabs Artists:  A B C D E F G H I J K L M N O P Q R S T U V W X Y Z 0-9

Sister Sally Guitar Tabs – Wide Mouth Mason

CD, Sheet music, Poster

Do you like Sister Sally? Share with your friends now
Tabs
Opening:
e|--------------------------------------------------
B|-6--6---6-6---------------------------------------
G|-6--6-8-6-6------10----------------------------10-
D|-8--8-9-8-8------9---11-----11-11--------------9--
A|-9--9-9-9-9----6-11----------------------------11-
E|------------5/7--9-----11/13-----11-11/13/11-9-9--

--------------------------------------------------------
---------6----------------------------------------------
----6---6-----6----------10--------------10--10----6----
-------8---6/8-8/6------9---11-----------9--------------
-6/8--9-----------9---11-----------------11-----6/8-----
--------------------9------------12/13-9--9-----------9-

----------------9-9----------------------------------------
-6--6------6----9-9h11---------------6---------------------
-6--6--8-6---10---10---------10------6---10-11-11/13-11-10-
-8--8--9-8---9---------------9---6/8-8---11-11-11/13-11-11-
-9--9--9-9---11--------------11------9---9--9-----------9--
-------------9------------11-9-----------------------------

----------------------------------------6--6--------------------
-----10---10h11p10-----10---------------6--6-6-6----------------
--11-9----9--------9---9----9h11p9------8--8-9-8-6/8-6--6/8-6---
-----11-------------11-11---------11-8/9--------------9-------9-
-9---9-----------------9----------------------------------------

-------------------|
-------------------|
----10----10-10----|
----9-----9--9-----|
--11-----9---11----|
-9-----11----9--11-|


Verse1:
e|---------------------------------------------------------------
B|-6------7--------------------------------6-6-------------------
G|-6------6----10-------------10-------10--6-6-10----------10-10-
D|-8---8h9-----11------11-----9--------9---8-8-9--11-----11---11-
A|-9-------------------13-----11-----11----9-9-11---10/11-----11-
E|----------7/9---10/11---11/9----7/9----------9-----------------

-----------------7-6h7p6--------------------------7--7-9-10/11-9-7-
---10-13/15/13-----6----6---7----10----10-10------6--6---10/11---6-
---9--13/15/13-------------6-----9-----9--9---6/8-8----------------
-11------------8----------8----11-----9---11------9----------------
------------------------------9-----11----9------------------------

------------------------6----------------------------------------------
----------------------7-7-7--7------14h16p14/12------------------------
-----10-10-10-10-10---6---6--6--10--13------/11-11-------10-10h11p10/8-
-8/9-9--9--10-10-9----8---8--8--9---------------11h13p11-11------------
-----11----------11---9---9--9--11-------------------------------------
-----9-----------9--------------9--------------------------------------

-------------------------------------------------------
----------7-7-7/9-10/11-9-7----------------------------
----6-----6-6-----10/11---6---6-10-10h11p10------10----
-6/8-6/8--8----------------7/8--9--9-------10----9-----
----------9---------------------11-----------9/11------
--------------------------------9----------------------

 theres lots to this on ill get the rest soon





Comments


Popular Wide Mouth Mason tabs & chords
My Old Self Bass Tabs
Smile 1 Bass Tabs
Breathe Out Tabs
Corn Rows Tabs
My Old Self Tabs
Rained Out Parade Tabs
Rust Tabs
Smile 1 Tabs
This Morning Tabs
Why Tabs


Song lyrics



↑ Back to top | Tablatures and chords are parodies/interpretations of the original songs. You may use it for private study, scholarship, research or language learning purposes only
© 2014 AZChords.com Contact us | Privacy policy | DMCA | Add/correct tabs | Request tabs | Top 50 tabs