» » »

My Old Self Tabs (ver.1)

Artists:  A B C D E F G H I J K L M N O P Q R S T U V W X Y Z # 

My Old Self Tabs (ver.1)

Wide Mouth Mason
Rating:
0/5 (0 votes)

Hard to play? Try these video lessons and learn fast.
                

I'm pretty sure about this tab just listen to get it right.
I know these are the chords Shaun play's but I think
he plays them in different positions.

------------------------------------------------------------------------------|
------------------------------------------------------------------------------|
------------------------------------------------------------------------------|
------------------------------------------------------------------------------|
------------------------------------------------------------------------------|
-5-0-2---5-0-2---5-0-2---5-0-2------------------------------------------------|
 Bass Line

-4---2-2--2-2-2-2---------4-----2-2-2-----------------------------------------|
-5---2-2--2-2-2-2---------5--7--2-2-2-----------------------------------------|
-2--------2-2-2-2----4/6--2--6--2-2-2-----------------------------------------|
-2--------4-4-4-4----2/4--2--4--4-4-4-----------------------------------------|
------------------------------------------------------------------------------|
------------------------------------------------------------------------------|
 Main Riff Intro and Verses with various sounds and minor changes

------------------------------------------------------------------------------|
------------------------------------------------------------------------------|
-2----------------------------------------------------------------------------|
-2-2--------------------------------------------------------------------------|
-0-2--4-4-4-4-----------------------------------------------------------------|
---0--0-2-0-2-----------------------------------------------------------------|
  Chorus
            
Hard to play? Try these video lessons and learn fast. | Correct




comments powered by Disqus
↑ Back to top | Tablatures and chords are parodies/interpretations of the original songs. You may use it for private study, scholarship, research or language learning purposes only