» » »

Wide Mouth Mason, My Imagination Tabs (ver.1)

Artists:  A B C D E F G H I J K L M N O P Q R S T U V W X Y Z # 

My Imagination Tabs (ver.1)

Wide Mouth Mason Tabs
 Rating:
4/5 (4 votes)
My Imagination lessons Tabs too difficult? Try these video lessons and learn fast
1
                Tuning Half a step down  eb, Bb, Gb, Db, Ab, Eb.
	  
	   Intro:
	eb|-----0-------0-------0-------3-------0-------0---
	Bb|-----1-------1-------1-------3-------1-------1---
	Gb|-----0-------0-------2-------0-------0-------0---
	Db|-----2-------0-------2-------0-------2-------0---
	Ab|-3-3-3-3-2-2-2-2-0-0-0-0-----2---3-3-3-3-2-2-2-2-
	Eb|-------------------------3-3-3-3-----------------

	-----0-------3-------0-------0-------0-------3---
	-----1-------3-------1-------1-------1-------3---
	-----2-------0-------0-------0-------2-------0---
	-----2-------0-------2-------0-------2-------0---
	-0-0-0-0-----2---3-3-3-3-2-2-2-2-0-0-0-0-----2---
	---------3-3-3-3-------------------------3-3-3-3-

	-----1----1------1----1------1----1--|
	-----1----1------1----1------1----1--|
	-----2----2------1----1------1----1--|
	-----3----3------3----3------3----3--|
	-----3----3------3----3------3----3--|
	-1-1-1--1-1--1-1-1--1-1--1-1-1--1-1--|


	   Verse:
	eb|------0-------0-------0-------0-------0--
	Bb|------1-------1-------1-------1-------1--
	Gb|------0-------0-------2-------2-------0--
	Db|------2-------2-------2-------2-------2--
	Ab|--3-3-3-3-3-3-3-3-0-0-0-0-0-0-0-0-3-3-3--
	Eb|-----------------------------------------

	   
	-------0-------0-------0-------1-------1---
	-------1-------1-------1-------1-------1---
	-------0-------2-------2-------2-------2---
	-------2-------2-------2-------3-------3---
	-3-3-3-3-3-0-0-0-0-0-0-0-0-----3-------3---
	---------------------------1-1-1-1-1-1-1-1-


	-----0-------0-------1-------0-------3-------3-|
	-----1-------1-------1-------1-------3-------3-|
	-----0-------0-------2-------2-------0-------0-|
	-----2-------2-------3-------2-------0-------0-|
	-3-3-3-3-3-3-3-3-----3---0-0-0-0-----2-------2-|
	-----------------1-1-1-1---------3-3-3-3-3-3-3-|


	   Pre-chorus:
	eb|---------------------------------------
	Bb|---------------------------------------
	Gb|---------------------------------------
	Db|-2-2-2-0-0-0-0-0-2-2-2-2-2-2-2-0-2-2-2-
	Ab|-0-0-0-2-2-2-2-2-3-3-3-3-3-3-3-0-0-0-0-
	Eb|---------------------------------------

	--------------------------------------------
	--------------------------------------------
	--------------------------------------------
	--0-0-0-0-0-2-2-2-2-2-2-2-0-2-2-2-2-2-2-2-2-
	--2-2-2-2-2-3-3-3-3-3-3-3-0-2-2-2-2-2-2-2-2-
	--------------------------------------------

	---------------------3---3-----3---3--|
	---------------------3---3-----3---3--|
	---------------------0---0-----0---0--|
	-2-2-2-2-2-2-2-2-----0---0-----0---0--|
	-0-0-0-0-0-0-0-0-----2---2-----2---2--|
	-----------------3-3-3-3-3-3-3-3-3-3--|


	   Chorus:
	eb|---0-0-0-0-0-0-0-0-0-0-0-0-0-0-0-0--
	Bb|---1-1-1-1-1-1-1-1-1-1-1-1-1-1-1-1--
	Gb|---0-0-0-0-0-0-0-0-2-2-2-2-2-2-2-0--
	Db|---2-2-2-2-2-2-2-0-2-2-2-2-2-2-2-0--
	Ab|-0-3-3-3-3-3-3-3-0-0-0-0-0-0-0-0-0--
	Eb|------------------------------------

	-0-0-0-0-0-0-0-0-0-0-0-0-0-0-0-0--
	-1-1-1-1-1-1-1-1-1-1-1-1-1-1-1-1--
	-0-0-0-0-0-0-0-0-2-2-2-2-2-2-2-0--
	-2-2-2-2-2-2-2-0-2-2-2-2-2-2-2-0--
	-3-3-3-3-3-3-3-0-0-0-0-0-0-0-0-0--
	----------------------------------

	------0-------0-------0-------3---
	------1-------1-------1-------3---
	------0-------0-------2-------0---
	------2-------0-------2-------0---
	--3-3-3-3-2-2-2-2-0-0-0-0-----2---
	-------------------------3-3-3-3-

	-----1----1------1----1------1----1--|
	-----1----1------1----1------1----1--|
	-----2----2------1----1------1----1--|
	-----3----3------3----3------3----3--|
	-----3----3------3----3------3----3--|
	-1-1-1--1-1--1-1-1--1-1--1-1-1--1-1--|

	   Solo: Using A Slide
	eb|-------------------------------------------------
	Bb|----------------15-17-17/18/17-15----------------
	Gb|-12/14-14/16/17-------------------17-14-14/16/17-
	Db|-------------------------------------------------
	Ab|-------------------------------------------------
	Eb|-------------------------------------------------

	--------------------------------------------------
	-19/20-20-20/17-17/18/17-15----------------15/17--
	----------------------------17-14-14/16/17--------
	--------------------------------------------------
	--------------------------------------------------
	--------------------------------------------------

	-----------------------------------|
	-19/20 20-20-20/17-----------------|
	--------------------14/16-16-16/12-|
	-----------------------------------|
	-----------------------------------|
	-----------------------------------|

	   Ending:
	eb|-----0-------0-------0-------3-------0-------0---
	Bb|-----1-------1-------1-------3-------1-------1---
	Gb|-----0-------0-------2-------0-------0-------0---
	Db|-----2-------0-------2-------0-------2-------0---
	Ab|-3-3-3-3-2-2-2-2-0-0-0-0-----2---3-3-3-3-2-2-2-2-
	Eb|-------------------------3-3-3-3-----------------

	-----0-------3-------0-------0-------0-------3---
	-----1-------3-------1-------1-------1-------3---
	-----2-------0-------0-------0-------2-------0---
	-----2-------0-------2-------0-------2-------0---
	-0-0-0-0-----2---3-3-3-3-2-2-2-2-0-0-0-0-----2---
	---------3-3-3-3-------------------------3-3-3-3-

	-----1----1------1----1------1----1--|
	-----1----1------1----1------1----1--|
	-----2----2------1----1------1----1--|
	-----3----3------3----3------3----3--|
	-----3----3------3----3------3----3--|
	-1-1-1--1-1--1-1-1--1-1--1-1-1--1-1--|
            
Submit corrections

comments powered by Disqus
↑ Back to top | Wide Mouth Mason Tabs for My Imagination. Lyrics for acoustic guitar and electric guitar. 1 Tablatures and chords are parodies/interpretations of the original songs. You may use it for private study, scholarship, research or language learning purposes only