>
 >
Lagavulin

Lagavulin Guitar Tabs

Wide Mouth Mason - Lagavulin chords, tabs, tablatures, lyrics

Guitar lessons | Add/correct | Request | Top 50 tabs Artists:  A B C D E F G H I J K L M N O P Q R S T U V W X Y Z 0-9

Lagavulin Guitar Tabs – Wide Mouth Mason

CD, Sheet music, Poster

Do you like Lagavulin? Share with your friends now
Tabs
	
I remember hearing this song a while back when Shawn played on some show live 
and did two songs, Lagavulin and It's So Bad Tonight. When I first heard the song
I was hooked, although he was playing a nylon string guitar and it was very hard
for me to understand what he was playing. Thankfully, Rained Out Parade has come 
out with this song released on it. YEAA, well here it is tabbed out for you.


This sounds almost PERFECT to the recorded song. 99.9 % I really went indepth with 
the look and feel of this song. I feel it's one of Shawn's best ballad's.


TUNING: Eb,Ab,Db,Gb,Bb,Eb


INTRO

  Bm        D          G         F#7
|-2--2---x--5--5---x---3--3--x------2-----------||
|-3--3---x--5--5---x---3--3--x------2-----------||
|-5--5---x--7--7---x---4--4--x------3--3-/-4----||
|-5--5---x--7--7---x---5--5--x------2-----------||
|-2--2---x--5--5---x---5--5--x------4-----------||
|--------x--5--5---x---3--3--x---2--------------||
                                    let ring --> 


VERSE

  Bm                 F#7           Bm                  F#7
|--------------2---------------|----------------2---------------||
|-------3------3---------2-----|---------3------3---------2-----||
|----4---------4--4------3h4---|------4---------4--4------3h4---||
|----4-----4-------------4-----|------4-----4-------------4-----||
|-2-------(2)------------------|---2-------(2)------------------||
|--------------------(2)-------|----------------------(2)-------||
                         ring                             ring

  Bm             F#7           Bm               F#7
|-----------------------------|---------------------------------||
|-------5-----3-------2-------|----x--5x5x5-3---2---------------||
|-------4-----4-------3-------|----x--4x4x4-4---3-h-4-----------||
|----4------------4---4---4---|----x--2x2x2-2---4---------------||
|-2--------2------------------|---------(2)---------------------||
|-----------------------------|--2------------------------------||


This is a little sketchy. He's doing his little fingering again. 
This gives you the idea perfectly though and this way is great
to try and finger pick. Feels good!

If your not sure about this one, just play the chords. It still
works fine.


Pre-Chorus - Part I 

  
  Em               A                A9 (root F#)
|-0--0--0-x-0--0---0--0--x--0--0-----------x-------||
|-0--0--0-x-0--0---2--2--x--2--2----2---2--x--2----||
|-0--0--0-x-0--0---2--2--x--2--2----3---3--x--3----||
|-2--2--2-x-2--2---2--2--x--2--2----2---2--x--2----||
|-2--2--2-x-2--2---0--0--x--0--0----0---0--x--0----||
|-0--0--0-x-0--0---------------- --(2)-----x-------||


Pre-Chorus - Part I b
(This is the way it is played the next time around. 
A little more added on.
  
  Em               A                       Em                A          A9 (root F#)
|-0--0--0-x-0--0---0--0--x--0--0--0--0--|--0--0--0-x--0--0---0--0--x----x--------------||
|-0--0--0-x-0--0---2--2--x--2--3--2--3--|--0--0--0-x--0--0---2--2--x----2---2--x--2----||
|-0--0--0-x-0--0---2--2--x--2--2--2--2--|--0--0--0-x--0--0---2--2--x----3---3--x--3----||
|-2--2--2-x-2--2---2--2--x--2--2--2--2--|--2--2--2-x--2--2---2--2--x----2---2--x--2----||
|-2--2--2-x-2--2---0--0--x--0--0--0--0--|--2--2--2-x--2--2---0--0--x----0---0--x--0----||
|-0--0--0-x-0--0------------------------|--0--0--0-x--0--0-------------(2)-----x-------||

Advanced players, thumb the root F# on the A9 at the end.


CHORUS

   Bm         D          G                   Bm         D         G               F#7
|--2--2---x---5--5---x---3--3--x--3---3--|--2--2---x---5--5---x---3--3--x--3--3-\-2----||
|--3--3---x---5--5---x---3--3--x--3---3--|--3--3---x---5--5---x---3--3--x--3--3-\-2----||
|--4--4---x---7--7---x---4--4--x--4---4--|--4--4---x---7--7---x---4--4--x--4--4-\-3----||
|--4--4---x---7--7---x---5--5--x--5---5--|--4--4---x---7--7---x---5--5--x--5--5-\-2----||
|--2--2---x---5--5---x---5--5--x--5---5--|--2--2---x---5--5---x---5--5--x--5--5-\-4----||
|---------x---5--5---x---3--3--x--3---3--|---------x---5--5---x---3--3--x--3--3-\-2----||


   Bm         D          G                               Bm         D         G        F#7
|--2--2---x---5--5---x---3--3--x---------------------|--2--2---x---5--5---x---3--3--x-----2----------||
|--3--3---x---5--5---x---3--3--x---------------------|--3--3---x---5--5---x---3--3--x-----2----------||
|--4--4---x---7--7---x---4--4--x--0h2p0--------------|--4--4---x---7--7---x---4--4--x-----3---3-/-4--||
|--4--4---x---7--7---x---5--5--x--------4--0h2p0-----|--4--4---x---7--7---x---5--5--x-----2----------||
|--2--2---x---5--5---x---5--5--x-------------------4-|--2--2---x---5--5---x---5--5--x-----4----------||
|---------x---5--5---x---3--3--x---------------------|---------x---5--5---x---3--3--x--2-------------||
                                                                                        let ring


BRIDGE

D | G | Em | A | D | G | Em | A | A9 root F#

0   3   0    0   0   3   0    0   x
3   3   0    2   3   3   0    2   2
2   0   0    2   2   0   0    2   3 
0   0   2    2   0   0   2    2   2 
x   2   2    0   x   2   2    0   x
x   3   0    x   x   3   0    x   2

I didn't bother looking into the bridge anymore. He's got some effects running while doing 
a chord pattern here. These chords should tide you over for it though.


SOLO (Slide Guitar)
/ = slide up 
\ = slide down
* = vibrato

This solo is 100% perfect

|-------------------/-5--3-\-2---------------|-------------------/-5--3-\-2----/-10-\-7-------------------|
|------------3-/-5--------------3-\-0--------|------------3-/--5------------------------/-10--7/8\7-------|
|---------4-----------------------------/-4--|--------4----------------------------------------------/-4--|
|--5/4\5-------------------------------------|--3-/-4------------------------------------------------/-4--|
|--------------------------------------------|------------------------------------------------------------|
|--------------------------------------------|------------------------------------------------------------|
                                          *      Let ring


|------------/-5--3-\-2-/-3-\-2------------|-------------------/-5--/-10-\-7---------------------|
|-----3-/-5----------------------3---\-2---|------------3-/--5----------------/-10--8---7-\-5----|
|--4---------------------------------------|--3-/-4----------------------------------------------|
|------------------------------------------|-----------------------------------------------------|
|------------------------------------------|-----------------------------------------------------|
|------------------------------------------|-----------------------------------------------------|
   *                             *

*** After solo, play the bit of the verse, then go into Pre-Chorus Part I b


OUTRO SOLO
Play this over the end of the song when he is singing the chorus a few times

|-------------------/-5--3-\-2----------|
|------------3-/--5------------/-3------|
|--------4------------------------------|
|--3-/-4--------------------------------|
|---------------------------------------|
|---------------------------------------|
         * - vibratio            *

LYRICS

Let me slide in your direction
Let me poke you full of holes
Let me mimic your inflections
Let me strike up all your poses
Let me curse you with my sickness
Let me cure you with my love
Add my randomness and chaos to the things that you're sure of

Who do I think that I'm foolin'
With my weed and wine and lagavulin
It'll never come out right
When I get with you tonight
And I wonder what the hell it is I'm doing

Let me show you what I'm good for
Let me find out what you're not
Let me piece it all together
Let me hold on to this picture that you cut yourself out of
Let me paste a perfect copy
On the the track marks of our love

Maybe I'll be alright

Who do I think that I'm foolin'
With my weed and wine and lagavulin
It'll never come out right
When I get with you tonight
And I wonder what the hell it is I'm doing

Please snap out of it
Just snap out of it
Please step out of it
Just walk away from it
Please snap out of it
Just snap out of it
Please walk away
You're not fooling anyone

Maybe I'll be okay
But in an hour or so I won't know what to say

Choking on the details
And there's screaming everywhere
'Til the blown out voices whisper
Maybe you're not even there

Oh maybe I'll be okay, 
But in an hour or so I won't know what to say

Who do I think that I'm foolin'
With my weed and wine and lagavulin
It'll never come out right
When I get with you tonight
And I wonder what the hell it is I'm doing

Who do I think that I'm foolin'
And I wonder what the hell it is I'm doing

Who do I think that I'm foolin'
And I wonder what the hell it is I'm doing


COMMENTS	

Finally this song is done being tabbed. That took me a while but it's perfect and
I hope you enjoy playing it as much as I do. Clearly one of the best new


Cheers





Comments


Popular Wide Mouth Mason tabs & chords
My Old Self Bass Tabs
Smile Bass Tabs
Smile 1 Bass Tabs
Breathe Out Tabs
Corn Rows Tabs
My Imagination Tabs
Rained Out Parade Tabs
Smile 1 Tabs
This Morning Tabs
Why Tabs


Song lyrics



↑ Back to top | Tablatures and chords are parodies/interpretations of the original songs. You may use it for private study, scholarship, research or language learning purposes only
© 2014 AZChords.com Contact us | Privacy policy | DMCA | Add/correct tabs | Request tabs | Top 50 tabs