» » »

Wide Mouth Mason, King Of Poison Tabs (ver.1)

Artists:  A B C D E F G H I J K L M N O P Q R S T U V W X Y Z # 

King Of Poison Tabs (ver.1)

Wide Mouth Mason Tabs
Rating:
0/5 (0 votes)
King Of Poison lessons Tabs too difficult? Try these video lessons and learn fast
                
	 This I know for sure is the right way no-one ever getts W.M.M stuff right....Except me of course!




	Opening:Acoustic Plays this twice then electric comes for the second time.

	e|--------------------------------------------------
	b|-------------------------------------3-3-3-3------
	g|-------------2-2-2-2-----------------2-2-2-2------
	d|-2-2-2-2-----2-2-2-2-----2-2-2-2-----0-0-0-0------
	a|-2-2-2-2-----0-0-0-0-----2-2-2-2------------------
	E|-0-0-0-0--3-----------3--0-0-0-0--3---------------

	--------------------------------------------------|
	--------------------------------------------------|
	-------------2-2-2-2--------------0-0---------0-0-|
	-2-2-2-2-----2-2-2-2-----2-2-2-2--0-0-0-0-0-0-0-0-|
	-2-2-2-2-----0-0-0-0-----2-2-2-2--2-2-0-0-0-0-2-2-|
	-0-0-0-0--3-----------3--0-0-0-0--3-3-2-2-2-2-3-3-|



	Verse: electric with light drive

	e|-------------------------------------0-0-0-0------|
	b|-------------------------------------3-3-3-3------|
	g|-0-0-0-0-----2-2-2-2-----0-0-0-0-----2-2-2-2------| x8
	d|-2-2-2-2-----2-2-2-2-----2-2-2-2-----0-0-0-0------|
	a|-2-2-2-2-----0-0-0-0-----2-2-2-2------------------|
	E|-0-0-0-0--3-----------3--0-0-0-0--3---------------|


	Chorus: both Guitars (here are the chords in the right order you can do the rest)
	e|------------------------------0---2--3--0-|
	b|------------------------------0---2--3--0-|
	g|-0----0---0----0---0--0---2---0---3--3--1-|
	d|-2----2---2----2---2--2---2---2---4--5--2-|
	a|-2----1---3----2---3--2---0---2---4--5--2-|
	E|-0----0--------0------0-------0---2--3--0-|
	   (these are kind of like half a cord)

	

	Pre Verse:Acoustic
	e|--------------------------------------------------
	b|-------------------------------------3-3-3-3------
	g|-------------2-2-2-2-----------------2-2-2-2------
	d|-2-2-2-2-----2-2-2-2-----2-2-2-2-----0-0-0-0------
	a|-2-2-2-2-----0-0-0-0-----2-2-2-2------------------
	E|-0-0-0-0--3-----------3--0-0-0-0--3---------------
	
	(Electric comes in here)
	--------------------------------------------------|
	--------------------------------------------------|
	-------------2-2-2-2--------------0-0---------0-0-|
	-2-2-2-2-----2-2-2-2-----2-2-2-2--0-0-0-0-0-0-0-0-|
	-2-2-2-2-----0-0-0-0-----2-2-2-2--2-2-0-0-0-0-2-2-|
	-0-0-0-0--3-----------3--0-0-0-0--3-3-2-2-2-2-3-3-|



	Verse 2: electric with light drive

	e|-------------------------------------0-0-0-0------
	b|-------------------------------------3-3-3-3------
	g|-0-0-0-0-----2-2-2-2-----0-0-0-0-----2-2-2-2------ x4
	d|-2-2-2-2-----2-2-2-2-----2-2-2-2-----0-0-0-0------
	a|-2-2-2-2-----0-0-0-0-----2-2-2-2------------------
	E|-0-0-0-0--3-----------3--0-0-0-0--3---------------

	--------------------------------------------------|
	--------------------------------------------------|
	-------------2-2-2-2--------------0-0---------0-0-|
	-2-2-2-2-----2-2-2-2-----2-2-2-2--0-0-0-0-0-0-0-0-| x2
	-2-2-2-2-----0-0-0-0-----2-2-2-2--2-2-0-0-0-0-2-2-|
	-0-0-0-0--3-----------3--0-0-0-0--3-3-2-2-2-2-3-3-|




	  (somewhere at about 1:19 in the song the acoustic does this)
	e|-0-------|
	b|--0------|
	g|---0-----|
	d|----2----|
	a|-----2---|
	E|------0--|


	Chorus: both Guitars
	e|------------------------------0---2--3--0-|
	b|------------------------------0---2--3--0-|
	g|-0----0---0----0---0--0---2---0---3--3--1-|
	d|-2----2---2----2---2--2---2---2---4--5--2-|
	a|-2----1---3----2---3--2---0---2---4--5--2-|
	E|-0----0--------0------0-------0---2--3--0-|


	Bridge: 
	e|------------------------------------------------------
	b|------------------------------------------------------
	g|-----6-6---6------4-4---4-------1-1---1-------1-1---1-
	d|--6--6-6---6---4--4-4---4---2---2-2---2---2---2-2---2-
	a|-4-4-----4----2-2-----2----2-2-----------2-2----------
	E|------------------------------------0-------------0---

	e|----------------------------------------0-|
	b|-2--2-2-2-2--2-2-2-2--2-2-2-3p2--2-2-2--0-|
	g|-2--2-2-2-2--2-2-2-2--2-2-2-2----2-2-2--1-|
	d|-2--2-2-2-2--2-2-2-2--2-2-2-2----2-2-2--2-|
	a|-0--0-0-0-0--0-0-0-0--0-0-0-0----0-0-0--2-|
	E|----------------------------------------0-|


	the rest coming soon...
            
Submit corrections

comments powered by Disqus
↑ Back to top | Wide Mouth Mason Tabs for King Of Poison. Lyrics for acoustic guitar and electric guitar. Tablatures and chords are parodies/interpretations of the original songs. You may use it for private study, scholarship, research or language learning purposes only