» » »

Corn Rows Tabs (ver.1)

Artists:  A B C D E F G H I J K L M N O P Q R S T U V W X Y Z # 

Corn Rows Tabs (ver.1)

Wide Mouth Mason
Rating:
0/5 (0 votes)

Hard to play? Try these video lessons and learn fast.
                E                  D
It might take some time
A                 E
But I'll do it on my own
E                   D
You act as if its a crime
A                    E
Like I'm bad down to my bones


Ref:
5-5-5-5-6-7-----------------------------------------------------------------|
5-5-5-5-6-7-----------------------------------------------------------------|
6-6-7-7-8-9-----------------------------------------------------------------|
7-7-7-7-8-9-----------------------------------------------------------------|
7-7-5-5-6-7-----------------------------------------------------------------|
5-5-------------------------------------------------------------------------|


But I sleep at night time
5-5-5-5-6-7-----------------------------------------------------------------|
5-5-5-5-6-7-----------------------------------------------------------------|
6-6-7-7-8-9-----------------------------------------------------------------|
7-7-7-7-8-9-----------------------------------------------------------------|
7-7-5-5-6-7-----------------------------------------------------------------|
5-5-------------------------------------------------------------------------|

And I can't understand if you ever did
5-5-5-5-6-7-----------------------------------------------------------------|
5-5-5-5-6-7-----------------------------------------------------------------|
6-6-7-7-8-9-----------------------------------------------------------------|
7-7-7-7-8-9-----------------------------------------------------------------|
7-7-5-5-6-7-----------------------------------------------------------------|
5-5-------------------------------------------------------------------------|

Sounds cliche I can't live a lie
B
I was feeling old and tired
E (bar cord)
Now I feel like a little kid

E                       D
I think you're suddenly blind
A                     E
You only see what you want to do
E                     D
Good God man where's your mind
A                             E
You don't see me but you're so easy to see through


Ref

A
Now I'm slipping through the corn rows
C#
Now I'm slipping through the corn rows
B
You can't see me any more
-----------------------------------------------------------------------|
--------------------2-4-2----------------------------------------------|
---------4h6-4------2-4-2----------------------------------------------|
-----4h6-------4h6--4-6-2----------------------------------------------|
-4h6----------------4-6------------------------------------------------|
--------------------2-4------------------------------------------------|
 Chorus

Now you're slipping through the corn rows

Slipping through the back rows

Can't see me anymore, can't see me anymore

Ref
            
Hard to play? Try these video lessons and learn fast. | Correct




comments powered by Disqus
↑ Back to top | Tablatures and chords are parodies/interpretations of the original songs. You may use it for private study, scholarship, research or language learning purposes only