>
 >
Breathe Out

Breathe Out Guitar Tabs

Wide Mouth Mason - Breathe Out chords, tabs, tablatures, lyrics

Guitar lessons | Add/correct | Request | Top 50 tabs Artists:  A B C D E F G H I J K L M N O P Q R S T U V W X Y Z 0-9

Breathe Out Guitar Tabs – Wide Mouth Mason

CD, Sheet music, Poster

Do you like Breathe Out? Share with your friends now
Tabs
After endless searches on tab databases and on the web, I haven't been able to find any
sites that feature any music by Wide Mouth Mason. For those of you that don't know who
these guys are, they are a band from Canada. They currently have released 4 albums 
and their newest album is called Stew. It features 13 tracks and is to me, the best 
album. (www.widemouthmason) For those of you that do know who this fine band is, 
finding tab's for their songs is quite hard considering no one has tabbed them out. Well
I've decided to tab out a series of songs from their latest CD for those hardcore WMM fans
out like there me. I really enjoy listening to Wide Mouth Mason because for one, the singer,
Shaun Verreault has one of the most amazing voices I have ever heard along with an unbreak
-able lead and rhythm guitar talent, Earl Pereira provides very funky and moving bass 
lines and Safwan Javed gives the whole sound a back bone beat. These guys are some of the 
biggest talents to ever come out of Canada. I know this from going to numerous concerts 
of their's and hearing them live. It truely brings tears. All in all though, the music 
guys really know how to play. Anyways, enough of the talk right, let's try the music.


Riff A

	This riff is played throughout the introduction, chrous and outro.

e|-----------------------------------------------------------------------------------------|
B|-----------------------------------------------------------------------------------------|
G|-----------------------------------------------------------------------------------------|
D|--------------------5b---------------(5)--(7)-------------------------5b-----------------|
A|-7-p-5-h-7-p-5-h-7------7-h-5---------5----7---(x)-7-p-5-h-7-p-5-h-7------5--7----(5)--7-|
E|-------------------------------5--x---3----5---(x)-----------------------------7---------|
                      *slight bend


Riff B

e|-------------------|
B|-------------------|
G|-------------------|
D|-------------------|
A|--7---7------------|
E|--0---0---0--0--0--|

	This is the guitar fill riff with a WAH pedal during the verse. Now it's either 
	this way or similar or he just hits an open LOW E and wah's it up and down. 
	Either way, it sounds similar. 



Riff A into Bridge                                                     Riff C

	Play the begining of Riff A as usual but in the second part of it, play this...

e|---------------------------------------------------------------------------------3-------|
B|---------------------------------------------------------------------------------3-------|
G|---------------------------------------------------------------------------------4-------|
D|------------------------5b-------------------------------------------------------3-------|
A|-(x)-7-p-5-h-7-p-5-h-7------5--7--------------------5--5b--------5---------------5-------|
E|-(x)------------------------------7--(x)--5-6-7--7---------7--7-----7-6-5--3--3--3-------|





e|-------3--------------------------------------3--------3---------------------------------|
B|-------3--------------------------------------3--------3---------------------------------|
G|-------4--------------------------------------4--------4---------------------------------|
D|-------3--------------------------------------3--------3---------------------------------|
A|-------5----------5--5b--------5--------------5--------5----------5--5b--------5---------|
E|-3--3--3----7--7---------7--7-----7-6-5--3-3--3--3--3--3----7--7---------7--7-----7-6-5--|





e|--------3-------3-------2------1---------------------------------------------------------|
B|--------3-------3-------2------1---------------------------------------------------------|
G|--------4-------4-------3------2---------------------------------------------------------|
D|--------3-------3-------2------1---------------------------------------------------------|
A|--------5-------5-------4------3---------------------------------------------------------|
E|--3--3--3--3--3-3-------2------1---------------------------------------------------------|

                          ^------^---strum these chords with the beat


	That's about it. Work with the solo. It's in the key of E which is a pretty simple 
	solo pattern. Shaun really goes all out in his solo's when he is playing live so
	they are always different. Anyways, enjoy!





Comments


Popular Wide Mouth Mason tabs & chords
Lagavulin Tabs
My Imagination Tabs
My Old Self Tabs
Rained Out Parade Tabs
Sister Sally Tabs
Smile Tabs
Smile 1 Tabs
Spmy Imagination Tabs
Superstition Tabs
This Morning Tabs


Song lyrics



↑ Back to top | Tablatures and chords are parodies/interpretations of the original songs. You may use it for private study, scholarship, research or language learning purposes only
© 2014 AZChords.com Contact us | Privacy policy | DMCA | Add/correct tabs | Request tabs | Top 50 tabs